Song name
# A B C D E F G H I J K L M N O P Q R S T U V W X Y Z

La Polla Records - Toda La Puta Vida Igual tab

toda la puta vida igual


la polla records


TRANSCRIBED BY RUDY GUZMAN


guzman_84@hotmail.com




                                               
e:--------------------------------------|
B:--------------------------------------|
G:-7--7-7-7-7-7-7-7---------------------|
D:-7--7-7-7-7-7-7-7---5-x-5-5-5-5-5-5-5-|
A:-5--5-5-5-5-5-5-5---5-x-5-5-5-5-5-5-5-|
E:--------------------3-x-3-3-3-3-3-3-3-|

e:--------------------------------------|
B:--------------------------------------|
G:-7--7-7-7-7-7-7-7---------------------|
D:-7--7-7-7-7-7-7-7---5-5-5-5-5-5-5-5-5-|
A:-5--5-5-5-5-5-5-5---5-5-5-5-5-5-5-5-5-|
E:--------------------3-3-3-3-3-3-3-3-3-|

  toda la puta vida igual...
e:--------------------------------------|
B:--------------------------------------|
G:-7--7-7-7-7-7-7-7---------------------|
D:-7--7-7-7-7-7-7-7---5-5-5-5-5-5-5-5-5-|
A:-5--5-5-5-5-5-5-5---5-5-5-5-5-5-5-5-5-|
E:--------------------3-3-3-3-3-3-3-3-3-|

e:--------------------------------------|
B:--------------------------------------|
G:-7--7-7-7-7-7-7-7---------------------|
D:-7--7-7-7-7-7-7-7---5-x-5-5-5-5-5-5-5-|
A:-5--5-5-5-5-5-5-5---5-x-5-5-5-5-5-5-5-|
E:--------------------3-x-3-3-3-3-3-3-3-|

e:--------------------------------------|
B:--------------------------------------|
G:-7--7-7-7-7-7-7-7---------------------|
D:-7--7-7-7-7-7-7-7---5-5-5-5-5-5-5-5-5-|
A:-5--5-5-5-5-5-5-5---5-5-5-5-5-5-5-5-5-|
E:--------------------3-3-3-3-3-3-3-3-3-|

  toda la puta vida igual...
e:--------------------------------------|
B:--------------------------------------|
G:-7--7-7-7-7-7-7-7---------------------|
D:-7--7-7-7-7-7-7-7---5-5-5-5-5-5-5-5-5-|
A:-5--5-5-5-5-5-5-5---5-5-5-5-5-5-5-5-5-|
E:--------------------3-3-3-3-3-3-3-3-3-|

                           que divertido
e:--------------------------|
B:--------------------------|
G:-7--7-7-7-7-7-7-7---------|
D:-7--7-7-7-7-7-7-7---5-5-5-|
A:-5--5-5-5-5-5-5-5---5-5-5-|
E:--------------------3-3-3-|


hillo son mex

6/08/12
Tap to rate this tab
# A B C D E F G H I J K L M N O P Q R S T U V W X Y Z