Song name
# A B C D E F G H I J K L M N O P Q R S T U V W X Y Z

La Portuaria - 10000 Km tab

-------------------------------------------------------------------------------
			     LA PORTUARIA - 10.000 Km
-------------------------------------------------------------------------------
Tabbed by: Matias Espina
Email: matias_elkabezon@hotmail.com

Intro:
(Se usa un acordeón y una armónica, pero acá lo pasé a la guitarra)

E-------------------------------------|
B---9999-7777-------7-----------------|
G-8--------------8-----8--------------|
D-------------------------------------|
A-------------------------------------|
E-------------------------------------|

E-------------------------------------|
B---9999-7777--------9-7--------------|
G-8----------------8-----8-6-8--------|
D-------------------------------------|
A-------------------------------------|
E-------------------------------------|


D#m
Quien era yo antes de verte
por los caminos anduve solo
cante canciones, busque en la noche
y en una carta tire la suerte

(punteo intro)

D#m
Quien era yo cuando se fueron
sin brujula y sin norte,
corriendo contra el viento
Volver a la manada
despues de haber dejado todo
despues de haber andado
la ruta de la soledad


Estribillo:
E-------------------------------------|
B------7---9---7-------7---9---7------|
G--8---------------8------------------|
D-------------------------------------|
A-------------------------------------|
E-------------------------------------|

F#     G#    B       B7
Ya caminamos 10000 km de amor
F#     G#    B            B7
y seguiremos hasta que el rio llegue al mar
F#     G#          B       B7
y nadaremos sobre la rompiente...

D#m
Quien era yo
quien era yo
quien era yo antes de verte
Y ahora estoy parado
en medio de la llanura
hacia adelante todo
y atras lo que se va

F#     G#    B       B7
Ya caminamos 10000 km de amor
F#     G#    B            B7
y seguiremos hasta que el rio llegue al mar
F#     G#          B       B7
y nadaremos sobre la rompiente...

D#m
Ya caminamos 10000 km de amor
y seguiremos hasta que el rio llegue al mar
y nadaremos sobre la rompiente...
Ya caminamos 10000 km de amor.
Tap to rate this tab
# A B C D E F G H I J K L M N O P Q R S T U V W X Y Z