Song name
# A B C D E F G H I J K L M N O P Q R S T U V W X Y Z

La Renga - En El Baldo tab

Help us improve GuitareTab! Take a short survey!
Intro  Esta parte se toca con wah-wah
E  --------------------------12-----------------------------------------*------------------20b--|
B  --------------------------12------------------------------------------------------------19b--|
G  --4-4-4-2baP0----4-4-4-0--12--4-4-4-2b-2b-----4-4-4----4-4-4-2b-2b---------------------------|
D  --2-2-2----------2-2-2-0------2-2-2-----------2-2-2----2-2-2---------------------------------|
A  ---------------------------------------------------------------------------------------------|
E  ---------------------------------------------------------------------------------------------|
   Riff 1          Riff 2
E  ---------------|---------------------------12------------------------------3----------2------|
B  ---------------|---------------------------12------------------------------0----------3------|
G  ---------------|---------------------------12------------------------------0----------2------|
D  ---------------|---------------------------14------------------------------0-0h2---0--0------|
A  --------0------|--2----5-7----7-9-10-12-14-14-12s14-14-12-10-9-10-10-9-7-2-2-----2-----------|
E  --3--2----2----|--0----3-5----5-7-8--10-12-12-10s12-12-10-8--7-8--8--7-5-0-3-----------------|

   Empieza sin tocar         G(Riff 1)
   Las garras de un terrible ser,
   Em             D
   desplumaban un ngel en en cielo,
   desde aqu lo vi caer,
   hacia el baldo de los misterios,
   yo corr desesperado,
   sent el ardor de una herida abierta,
   estaba el ngel ahi tirado
   y en sus ojos habl la tristeza.

   G5          D5  D#5 E5
   No me mires as,
   E5               C5
   Dios me ha hecho para caer,
   G5                    D5 D#5 E5
   y no sientas pena por mi,
   E5             C5
   tal vez vivir cueste el pecado,
   G5               D5 D#5 E5
   y si todo lo soado,
   E5                  C5
   no vive en la realidad,
   G5                   D5
   es el ngel que te cuida,
                     Em G C
   el que ves caido ac.

   RIFF 2

   Las espinas del cardo santo,
   lo abrazaron en su cada,
   y entre saumerios de basura,
   el ngel aquel se mora,
   sent un vaco a mis espaldas,
   y sent que solo me quedaba,
   en el baldo de los misterios,
   ante esos ojos tristes que me hablaban.

   No me mires as,
   Dios me ha hecho para caer,
   y no sientas pena por mi,
   tal vez vivir cueste el pecado,
   y si todo lo soado,
   no vive en la realidad,
   G5                  D5
   es el ngel que te cuida,
                         Em G C
   que se est muriendo ac,
   G5               D5
   el ngel que te cuida,
                         Em G C
   que se est muriendo ac.

   Base de guitarra sobre solo de saxo: G5//D5//E5//C5//(x4)

   Final
E  --3-----------3-----------------------------------0------------------------------------------|
B  --0-----------0-----------------------------------0------------------------------------------|
G  --0-----------0-----------------------------------0------------------------------------------|
D  --0---------2-0-0h2---0---------2-----------------2------------------------------------------|
A  --2-----0---2-2-----2-------0---2-----------------2------------------------------------------|
E  --3-3-2---2-0-3---------3-2---2-0-----------------0------------------------------------------|
Related for En El Baldo tab