Song name
# A B C D E F G H I J K L M N O P Q R S T U V W X Y Z

La Resistencia - No Puedo Olvidarte tab

No Puedo Olvidarte
La Resistencia
Written by Daniel Acuņa

E---7~---7-----|-12~---7~---|-7---7~---7-----|-12~---7~---|
B---8~-----8---|-13~---7~---|--8--8~-----8---|-13~---7~---|
G---9~-------9-|-14~---8~---|---9-9~-------9-|-14~---8~---|
D---9~---------|-14~---9~---|-----9~---------|-14~---9~---|
A---7~---------|-12~---9~---|-----7~---------|-12~---9~---|
E--------------|-------7~---|----------------|-------7~---|

E---7--7--7--7--7--8--8--7--7-----|
B----8--8--8--8--8--8--8--7--7----|
G-----9--9--9--9--9--9--9--8--8---|
D---------------------------------| x2
A---------------------------------|
E---------------------------------|

E---7-7-7-7-7-7-7-7-8-8-8-8-8-7-7-7-7---|
B---8-8-8-8-8-8-8-8-8-8-8-8-8-7-7-7-7---|
G---9-9-9-9-9-9-9-9-9-9-9-9-9-8-8-8-8---|
D---------------------------------------| x2
A---------------------------------------|
E---------------------------------------|

E---77-7-7-777-7-7-788-8-8-877-7-7---|
B---88-8-8-888-8-8-888-8-8-877-7-7---|
G---99-9-9-999-9-9-999-9-9-988-8-8---|
D------------------------------------| x2
A------------------------------------|
E------------------------------------|

E---7x7x7x7x7x7x7x7x7x7x8x8x8x8x8x7x7x7x7---|
B---8x8x8x8x8x8x8x8x8x8x8x8x8x8x8x7x7x7x7---|
G---9x9x9x9x9x9x9x9x9x9x9x9x9x9x9x8x8x8x8---|
D-------------------------------------------| x16
A-------------------------------------------|
E-------------------------------------------|

E---------------------------------------|    |------------|
B---------------------------------------|    |------------|
G---9~99~999~9~99~999~------------------|    |----------9-|
D---9~99~999~9~99~999~7~75~777~55~77~---| x4 |-(end on)-9-| 
A---7~77~777~7~77~777~7~75~777~55~77~---|    |----------7-|
E---------------------5~55~555~33~55~---|    |------------|

E---77-7-7-777-7-7-788-8-8-877-7-7---|
B---88-8-8-888-8-8-888-8-8-877-7-7---|
G---99-9-9-999-9-9-999-9-9-988-8-8---|
D------------------------------------| x2
A------------------------------------|
E------------------------------------|

E---77-7-7-7-7-7-7-8-8-8-8-8-77-7-7---|
B---88-8-8-8-8-8-8-8-8-8-8-8-77-7-7---|
G---99-9-9-9-9-9-9-9-9-9-9-9-88-8-8---|
D-------------------------------------| x2
A-------------------------------------|
E-------------------------------------|

E---7--7--7--7--7--8--8--7--7-----|            |---7---|
B----8--8--8--8--8--8--8--7--7----|            |---8---|
G-----9--9--9--9--9--9--9--8--8---|            |---9---|
D---------------------------------| x2 (end on)|---9---|
A---------------------------------|            |---7---|
E---------------------------------|            |-------|

its a cool song it took me two hours
Tap to rate this tab
 
# A B C D E F G H I J K L M N O P Q R S T U V W X Y Z