Song name
# A B C D E F G H I J K L M N O P Q R S T U V W X Y Z

La Rondalla De Saltillo - Te Deseo Amor Requinto tab

-------------------------------------------------------------------------------
          Te deseo amor (requinto)- la rondalla de saltillo 
-------------------------------------------------------------------------------
Tabbed by: Lord Mortiis
E-mail:

/: deslisar

Tuning:

e|------------------------------------10---------------------8---------------|
B|----12-13-15-12---10-12-10-12---8-10---10---8-10-8-10--6-8---8--6-8-6-8----|
G|---------------------------------------------------------------------------|
D|---------------------------------------------------------------------------|
A|---------------------------------------------------------------------------|
E|---------------------------------------------------------------------------|

e|--8--7--6--5/3-------------------------------------------------------------|
B|--9--8--7--6/4-------------------------------------------------------------|
G|---------------------------------------------------------------------------|
D|---------------------------------------------------------------------------|
A|---------------------------------------------------------------------------|
E|---------------------------------------------------------------------------| 
************************************

| /   slide up
| \   slide down
| h   hammer-on
| p   pull-off
| ~   vibrato
| +   harmonic
| x   Mute note
| b   Bend
| pb  Pre-bend
| br  Bend release
| pbr Pre-bend release
| brb Bend release bend

************************************
Tap to rate this tab
# A B C D E F G H I J K L M N O P Q R S T U V W X Y Z