Song name
# A B C D E F G H I J K L M N O P Q R S T U V W X Y Z

La Roux - Quicksand Acoustic tab

Hey guys! This song has been requested lots on youtube so here you have it :)
It's 100% good, because I tabbed it by watching the acoustic version of Elly Jackson 
herself playing Quicksand. This is a pretty sweet tune to play acoustically. Enjoy ;D

LA ROUX - QUICKSAND
No Capo, or adjust to your own voice.

Intro :

e|--5-------|
B|--5-------|
G|--5-------|
D|--5-------|
A|--7-------|
E|--5-------|   x5, (find the strumming)

e|--1-------|
B|--1-------|
G|--2-------|
D|--3-------|
A|--3-------|
E|--1-------|   x5

e|--3-------|
B|--3-------|
G|--4-------|
D|--5-------|
A|--5-------|
E|--3-------|   x5

e|--5-------|
B|--5-------|
G|--5-------|
D|--5-------|
A|--7-------|
E|--5-------|   x5

Ooooh, Ooooh, Oooh, Ooooooh x2

Verse 1 :

e|--5-------|
B|--5-------|
G|--5-------|
D|--5-------|
A|--7-------|
E|--5-------|   x5,

e|--1-------|
B|--1-------|
G|--2-------|
D|--3-------|
A|--3-------|
E|--1-------|   x5

e|--3-------|
B|--3-------|
G|--4-------|
D|--5-------|
A|--5-------|
E|--3-------|   x5

e|--5-------|
B|--5-------|
G|--5-------|
D|--5-------|
A|--7-------|
E|--5-------|   x5

Repeat the same set of chords three times then...


e|--5-------|
B|--5-------|
G|--5-------|
D|--5-------|
A|--7-------|
E|--5-------|   x5,

e|--1-------|
B|--1-------|
G|--2-------|
D|--3-------|
A|--3-------|
E|--1-------|   x5

e|--3-------|
B|--3-------|
G|--4-------|
D|--5-------|
A|--5-------|
E|--3-------|   x5

And I'm in the QUICKSAND!...


Chorus :


e|--5-------|
B|--5-------|
G|--5-------|
D|--5-------|
A|--7-------|
E|--5-------|   x5

e|--3-------|
B|--3-------|
G|--4-------|
D|--5-------|
A|--5-------|
E|--3-------|   x2

e|--8-------|
B|--8-------|
G|--9-------|
D|--8-------|
A|--10------|
E|--8-------|   x5


e|--5-------|
B|--5-------|
G|--5-------|
D|--5-------|
A|--7-------|
E|--5-------|   x2,

Repeat same set of chords twice


Verse 2 :

Same chords than Verse 1


Bridge :

(stroke softly)
e|--5-------|
B|--5-------|
G|--5-------|
D|--5-------|
A|--7-------|
E|--5-------|   x6

You, you moved into my mind

e|--3-------|
B|--3-------|
G|--4-------|
D|--5-------|
A|--5-------|
E|--3-------|   x6

again. Ooohh....

e|--5-------|
B|--5-------|
G|--5-------|
D|--5-------|
A|--7-------|
E|--5-------|   x6

You, you're walking around rent free

e|--3-------|
B|--3-------|
G|--4-------|
D|--5-------|
A|--5-------|
E|--3-------|   x6

Oooooh...

e|--5-------|
B|--5-------|
G|--5-------|
D|--5-------|
A|--7-------|
E|--5-------|   x5

Oh, I

e|--3-------|
B|--3-------|
G|--4-------|
D|--5-------|
A|--5-------|
E|--3-------|   x2

could let you stay

e|--8-------|
B|--8-------|
G|--9-------|
D|--8-------|
A|--10------|
E|--8-------|   x5

but I'm walking a broken


e|--5-------|
B|--5-------|
G|--5-------|
D|--5-------|
A|--7-------|
E|--5-------|   x2

ground again.

(Same chords)

Oh, oh, when will I learn?
All you do is push me back in the dirt.

Interlude :  (Intro chords again)
             Oooohh Oohh Oooh Oooh,
             Haaa ah ahhh!

(Chorus again)

And I'm in the quicksand.
Tap to rate this tab
 
# A B C D E F G H I J K L M N O P Q R S T U V W X Y Z