Song name
# A B C D E F G H I J K L M N O P Q R S T U V W X Y Z

La Sallian Family - Hail Hail Almamater tab

this is a tab of our almamater song in the University of St. La Salle,
Bacolod City, Philippines


e----------------------------------------------------------------|
B--8----8----------8--8--10--10--12--12--13----------------------|
G----7----7--5--7---------------------------12--14---12--11--9---|
D----------------------------------------------------------------|
A----------------------------------------------------------------|
E----------------------------------------------------------------|

e-----------------------------------------------------------------|
B----10----------------------8-----------8---------8--8--9--9--12-|
G--9-----9--11--12--14-----7---7--5---7----7--5--5----------------|
D-----------------------------------------------------------------|
A-----------------------------------------------------------------|
E-----------------------------------------------------------------|

e-----------------------------------------------------------------|
B--13--13-------12--------10-----9--8-9---------------------------|
G--------12--14----11--9------------------------------------------|
D-----------------------------------------------------------------|
A-----------------------------------------------------------------|
E-----------------------------------------------------------------|

thats the whole song! thank you
Tap to rate this tab
 
# A B C D E F G H I J K L M N O P Q R S T U V W X Y Z