Song name
# A B C D E F G H I J K L M N O P Q R S T U V W X Y Z

La Souris Deglinguee - Brigitte B Cambodgienne tab

A jouer en power chord

La Souris Dglingue - Brigitte B. Cambodgienne  


e|-2---2-----------------------|
B|-2---2-----------------------|
G|-2---2---2-4-2-5--5---4-2----|   x4
D|-4---4--------------------4-2|
A|-4---4-----------------------|
E|-2---2-----------------------|


F#m     A     C#

F#m     A     B


   F#m           A       C# 
Au niveau du courage, putain c'tait rik-rak,
  F#m              A        B 
Diplomates  plat-ventre devant l'arme macaque,
 F#m            A       C#   
Ils ont laiss tuer le Prince Sirik Matak
     F#m            A         B 
Pour sauver l'ambassade d'une ventuelle attaque.

 D                   B            C# 
Non ce n'est pas du cinma comme dans La Dchirure,
    D        A        G 
Car la ralit, elle fut cent fois plus dure,
 D                   B       C# 
C'est ce que tu m'as dit dans ton salon de coiffure,
 D               A              G   
Brigitte Bardot cambodgienne, chappe de la dictature.


Refrain:
A               E            D 
Brigitte Bardot cambodgienne,
A                  E              D 
Cette chanson elle est pour toi, exile de Phnom-Penh,
A               E          D
Brigitte Bardot cambodgienne,
A           E         D
Devenue par le destin une vraie Parisienne!


e|-7---7--------------------------|
B|-9---9--------------------------|
G|-9---9--------------------------|   x4
D|-9---9--------------------------|
A|-7---7-----------5-5-5-4-4-4-5-5|
E|-----------5-5-5----------------| 



Dans les annes 70, les manifestants gueulaient
Des slogans rvolutionnaires entre Bastille et Rpublique
O sont-ils maintenant, auraient-ils des regrets ?
D'avoir soutenu le combat d'un gnocide dmocratique
Des millions de morts dans les rizires cimetires
Autant de mines anti-personnel, en guise de garde frontire
Mais toi tu penses, c'est ton karma, d'avoir connu le pire
Brigitte Bardot cambodgienne
Ecoute ce que j'ai  te dire

Refrain

e|-7---7--------------------------|
B|-9---9--------------------------|  x3
G|-9---9--------------------------|
D|-9---9--------------------------|
A|-7---7-----------5-5-5-4-4-4-5-5|
E|-----------5-5-5----------------|  

e|-7---7--------------------------|
B|-9---9--------------------------|  x1 
G|-9---9-----------9-9-9-8-8-8-9-9|
D|-9---9-----9-9-9----------------|
A|-7---7--------------------------|
E|--------------------------------|


Quand je te regarde danser, tes mains et tes pieds ressemblent  des serpents
Et quand tu te mets  chanter, un air qui date de la nuit des temps
J'ai l'impression de t'avoir entendu dans une vie antrieure
Alors  coup sr, a c'est prvu, on se reverra dans un future meilleur
Non ce n'est pas du cinma, comme dans la Dchirure
Car la ralit, elle fut cent fois plus dure
C'est ce que tu m'as dit, dans ton salon de coiffure
Brigitte Bardot cambodgienne
Echape de la dictature 

Refrain

e|-7---7--------------------------|
B|-9---9--------------------------|
G|-9---9--------------------------|   x4
D|-9---9--------------------------|
A|-7---7-----------5-5-5-4-4-4-5-5|
E|-----------5-5-5----------------|

e|-9----9-----------------------------------|
B|-10---10---10-12-10-13-----13---12-10-- --|
G|-11---11---------------------------- -11-9|  x4
A|-11---11----------------------------------|
D|-9----9-----------------------------------|
E|------------------------------------------|
Tap to rate this tab
# A B C D E F G H I J K L M N O P Q R S T U V W X Y Z