La Tigresa Del Oriente - En Tus Tierras Bailar tab

Hola tigres y tigresas, les habla el Tigre del Oriente, rindiendole tributo a esta bella 
llamada Judith Bustos. Muchos me piden la tablatura para el video de "En tus tierras 
que hice (http://www.youtube.com/watch?v=v3TOndVqGGI). Ahí les va.

----------3--1----------3--1-----------------------|
---3---3------3--3---3------3--3--3-----1----------|
-3---3----------3--3----------3--3--2-2--2-3-------|  Intro.
---------------------------------------------------|
---------------------------------------------------|
---------------------------------------------------|

La intro se toca 4 veces lento, luego 3 veces rápido y luego se toca esto:

----------3--1----------3--1-----------------------|
---3---3------3--3---3------3--3--3-------1--------|
-3---3----------3--3----------3--3--2-0-2---3-0----|  Intro.
---------------------------------------------------|
---------------------------------------------------|
---------------------------------------------------|

Después de esto sale Wendy Sulca diciendo "Con mucho cariño..."


--6-----------------------------6-------------------|
--6--10--6---------------6------6-------------------|
--7--10--7--2---------8--7--7---2-------------------|   Coro.
--8--10--7--5---------8--8--7---5-------------------|
--8---8---5-5---------6--8--5---5-------------------|
--6---------3------------6------3-------------------|

Israel Israel...     Israel Israel...

El coro es sencillo, consiste en puras barras.

Bueno, eso es todo. Pendientes de nuevos videos. Siganme en youtube y en twitter.

http://www.youtube.com/user/mauro00013
http://www.twitter.com/mauro000
Tap to rate this tab
 
# A B C D E F G H I J K L M N O P Q R S T U V W X Y Z