Song name
# A B C D E F G H I J K L M N O P Q R S T U V W X Y Z

La Vela Puerca - Va A Escampar tab

La Vela Puerca - Va a Escampar 

Since there was no tab for that, here s the Solo. Should be pretty accurate, 
listen to the song for the rhythm. Have fun :)


e|--------------------------------------------------|
B|--------------------------------------------------|
G|-------14--------16---------17-16h17p16--14-------|
D|-12/14----12/14---------14-------------------17---|
A|--------------------------------------------------|
E|--------------------------------------------------|


e|----------------------------------------------------------------------|
B|---------------------------------------------------12-----------------|
G|------12b14r12--14b16r14---12/10-9/7-------------9----9-7------7~-----|
D|--15---------------------------------10-9-7-9-10-----------10---------|
A|----------------------------------------------------------------------|
E|----------------------------------------------------------------------|


e|------------------------------------------------|
B|------------------------------------------------|
G|--9------------5----7b--7p5-7-5~----------------|
D|----9~-9/10--7---7------------------------------|
A|------------------------------------------------|
E|------------------------------------------------|
Tap to rate this tab
# A B C D E F G H I J K L M N O P Q R S T U V W X Y Z