La Vida Boheme - Buen Salvaje tab

Mdd788
3.Buen Salvaje - Nuestra
La vida boheme



Intro

E:-----------------------------------------------------------------------|
B:-----------------------------------------------------------------------|
G:-----------------------------------------------------------------------|
D:-----------------------------------------------------------------------|
A:------------------2-------------------1-------------------2------------|
E:-----4----2---4---------4----2----4------4-----2------4------4----2/4--|

Parte [A]
No hay jabón para limpiarnos la boca       Entre riff x 2
 Ab5

E:-------------------------------------------|
B:-------------------------------------------|
G:-------------------------------------------|
D:--6----------------------------------------|
A:--6----------------------------------------|
E:--4----------------------------------------|

Sin maldecir B5
E:-------------------------------------------|
B:-------------------------------------------|
G:-------------------------------------------|
D:--9----------------------------------------|
A:--9----------------------------------------|
E:--7----------------------------------------|


Y no te entiendo [Puente]

E:------------------------------------------------------|
B:------------------------------------------------------|
G:------4~~~---4~~~~---------8~~~-----------------------|
D:---6----6--------9------------------------------------|
A:------------------------------------------------------|
E:------------------------------------------------------|



Coro    x  2


E5     C#5


Ab5    B5




[Intro]

Parte [A]

Puente

Coro x 2

http://www.wearealloftheabove.com/
Tap to rate this tab
 
# A B C D E F G H I J K L M N O P Q R S T U V W X Y Z