La Zurda - Como El Rio tab

Como el rio - La Zurda            http://www.lazurda.net/

Intro
  E   B   C#m    A    E   B   C#m   A
|-------------------|-----------------|
|-------------------|-----------------|
|--------9----------|--------6--------|
|--6-7-9---9--------|--6-7-9---6------|
|-------------------|-----------------|
|-------------------|-----------------|

      E 		B 	C#m	 A
Si tu eres la ventana como yo apuntaria sia 
E 		B 	C#m	 A
el sur porque alli estas ehh
E 		B 	C#m		 A
Cuanto tiempo que ha pasado y parecio siempre a la misma estacion triste
E 		B 	C#m		 A
Todo lo que pasa esta pasando nos a tiempo y solo una vez pasara como el rio
E 		B 	C#m		 A
Todo lo que pasa esta pasando nos a tiempo y solo una vez pasara como el rio
    
 E    B    C#m     A
|-------------------|
|-------------------|
|--------6----------|  
|--6-7-9------------|
|----------7--------|
|-------------------|

E 		B 	C#m		 A
Non mi devi piu aspettare salvati
E 		B 	C#m		 A
da questa parte del mare io ti guardero 
E 		B 	C#m		 A
possa tu provare tutto senza me 
E 		B 	C#m		 A
e dentro un sogno migliore rinascere
E 		B 	C#m		 A
Ogni giorno passa e va rubando il nostro tempo 
E 		B 	C#m		 A
tutto scorre e passa come fiume 
E 		B 	C#m		 A
tutto questo tempo sta rubando il nostro tempo 
E 		B 	C#m		 A
che passa e non ritornero come fiume


solo
|---------------|--------------------|-12-12-12--11-9-11-12-9-----9-----|
|-9-9-9-9-7--9--|-9-10-10-9-10-12-9--|-----------------------9-10--12-9-|
|-----------9---|------------------9-|----------------------------------|  
|---------------|--------------------|----------------------------------|
|---------------|--------------------|----------------------------------|
|---------------|--------------------|----------------------------------|

|-----------------------------------------------------------------------|
|--------------------------------------12-12-12-9-10-12-9---------------|
|-9-9-9-9-------9-9------------9-9-8----------------------9------9-9----|  
|--------11-9-11----11-9------9-----9------------------------9-11---11-9|
|-------------------------9-11------------------------------------------|
|-----------------------------------------------------------------------|

E 		B 	C#m		 A
Una moto a color un paesaje a la luz esta libre con vos en america del sur
E 		B 	C#m		 A
Una moto a color un paesaje a la luz esta libre con vos en america del sur
E 		B 	C#m		 A
Todo lo que pasa esta pasando nos a tiempo y solo una vez pasara como el rio
E 		B 	C#m		 A
Todo lo que pasa esta pasando nos a tiempo y solo una vez pasara como el rio
E 		B 	C#m		 A
Uhhhh uhhhhh  uhhhhhh    uhhhhhhh  
E 		B 	C#m		 A
Uhhhh uhhhhh  uhhhhhh    uhhhhhhh  

Outro
 E   B   C#m   A      E   B  C#m   A   E
|-------------------|-----------------|
|-------------------|-----------------|
|--------9----------|--------6--------|
|--6-7-9---9--------|--6-7-9---9------|
|-------------------|-----------------|
|-------------------|-----------------|
Tap to rate this tab
 
# A B C D E F G H I J K L M N O P Q R S T U V W X Y Z