Song name
# A B C D E F G H I J K L M N O P Q R S T U V W X Y Z

Laam - Jamais Loin De Toi tab

Help us improve GuitareTab! Take a short survey!
Tabbed by Tan Sin Yi (sinyi4@hotmail.com)

CAPO 1st fret
e|---3-5--7--5-3--|---2---2/5--3--2-0-|-------0-2-3--5-2--0-2|
B|----------------|--3---3------------|---2------------------|
G|---4-6--7--6-4--|-2-------6--4------|--2---2----4--6-2-----|
D|0---------------|0------------------|-2--------------------|
A|----------------|-------------------|0---------------------|
E|----------------|-------------------|----------------------|

e|---2---2/5--3-2-0-|--------0-2-3--5-2--0--|----2---------0--|
B|--3---3------------|----2------------------|-3-3---3-3---3---|
G|-2-------6--4------|---2---2----4--6-2-----|--2-----2---2----|
D|0------------------|--2--------------------|-0---------0-----|
A|-------------------|-0---------------------|-----------------|
E|-------------------|-----------------------|-----------------|

e|---0------------|--2---------0--|---0----------|----------}2--3-2-|
B|----------3---2-|--3---3-3---3---|---------3---2|---0----2-}3--3-3-|
G|--2------4---2--|-2-----2---2----|--2-----4---2-|--0----2--}2------|
D|-2------4---2---|0---------0-----|-2-----4---2--|-0----2---}0------|
A|0------2---0----|----------------|0-----2---0---|-----0------------|
E|----------------|----------------|--------------|3-----------------|

e|---------------|--------0-}2-2-|*--2----0-----|------------------|
B|---0----0----2-|---3------}3-3--|--3----------3|---0----3---2----0|
G|--0-----0----2-|--4----2--}2----|-2-----2----4-|--0----4---2----0-|
D|-0-----0----4--|-4----2---}0----|0-----2----4--|-0----4---2----0--|
A|------2----4---|2----0----------|-----0----2---|-----2---0--------|
E|3----0----2----|----------------|--------------|3-------------3---|

e|----2---$-}2-2-|REPEAT * TO $---|--3-5--7--5-3--|---2--------0-|
B|---3----2-}3-3--|----------------|---------------|--3--3-3---3--|
G|--2----2--}2----|----------------|--4-6--7--6-4--|-2----2---2---|
D|-0----2---}0----|----------------|0--------------|0--------0----|
A|----^0----------|----------------|---------------|--------------|
E|----------------|----------------|---------------|--------------|

e|----0---------|REPEAT---TO-^-|--3-3--3-2-3--5-5-|---0-2--2-0-2-0|
B|---------3---2|---------------|------------------|--3------------|
G|---2----4---2-|---------------|----4--4-2-4--6-6-|-2---2--2-0-2-0|
D|--2----4---2--|---------------|-2----------------|---------------|
A|-0----2---0---|---------------|0-----------------|---------------|
E|--------------|---------------|------------------|---------------|

e|----0-2-3--3-2-3-2---0-0-0-|--------3p2-0-|----2---------0----0--|
B|3--------------------------|-3---2-------3|-3-3-----3------------|
G|---2----4--4-2-4-2---0-0-0-|-4---2--------|--2-----2----2----2---|
D|4--------------------------|-4---2--------|-0-----0----2----2----|
A|---------------------------|-2---0--------|------2----0----0-----|
E|---------------------------|--------------|----------------------|

e|--------------|--------2--|----4----------2|---------2---4-------|
B|---0----3----2|---0---3---|---5-----5------|-----5------5------5-|
G|--0----4----2-|--0---2----|--4-----4-----4-|----6---4--4------4--|
D|-0----4----2--|-0---0----2|-------2-----4--|---6---4---------2---|
A|-----2----0---|---------0-|------------2---|--4---2--------------|
E|3-------------|3----------|-0----0---------|----------0-----0----|

e|----2---------2----0|---------2----0|------2--2|---4---4/7-7-5--4|
B|---------5----------|----5----------|-5--5-2--2|--5---5----------|
G|---4----6----4----2-|---6----4----2-|-6--6-4--4|-4---------8-6---|
D|--4----6----4----2--|--6----4----2--|-6--6-4--4|-----------------|
A|-2----4----2----0---|-4----2----0---|-4--4-2--2|-----------------|
E|--------------------|---------------|----------|0----------------|

e|2---2---------2---0|-------2-2|---4---4/7-7-12-|11-7-2-2h4p2-|
B|----------5--------|--5--5-2-2|--5---5----------|---------------|
G|---4-----6---4---2-|--6--6-4-4|-4---------8-----|---------------|
D|--4-----6---4---2--|--6--6-4-4|-----------------|---------------|
A|-2-----4---2---0---|--4--4-2-2|-----------------|---------------|
E|-------------------|-----------|0----------------|---------------|

e|()---0-2-4------0-|--------2---0--|----------|12--1412--7--9-7--|
B|-2-4--------5-----|----5----------|----5-----|-------------------|
G|-----------6---2--|---6---4---2---|---6---4--|13--1413--8--9-8--|
D|----------6---2---|--6---4---2----|--6---4---|-------------------|
A|---------4---0----|-4---2---0-----|-4---2----|-------------------|
E|------------------|---------------|----------|-------------------|

e|-12--14-12--7--9-7-|-4--5-4--4--5-4-|-0h2p0h2p0------------------|
B|-------------------|----------------|----------------------------|
G|-13--14-13--8--9-8-|-4--6-4--4--6-4-|-------------end------------|
D|-------------------|----------------|-2--------------------------|
A|-------------------|----------------|----------------------------|
E|-------------------|----------------|-0--------------------------|



| /  slide up      } tremolo
| \  slide down   () pause 
| h  hammer-on
| p  pull-off
| ~  vibrato
| +  harmonic
| x  Mute note


LYRICS

Ouh,ouh,ouh...
Tu viens comme dans un rve
Et tu t'endors tout contre moi
Comme le jour qui se lve
Dans mon coeur quand j'ai un peu froid
Tu souris et rien n'est plus tendre alors
Que le vent et la pluie
Qui glissent sur ton corps

Oh,oh
Si la nuit te fait peur
Seul tout au fond de ton coeur
Si tu cherches une amie, pense  moi
Je n'serai jamais loin de toi
Et mme, si c'est toutes les nuits
Si je dois passer ma vie
A te consoler, je serai l
Je n'serai jamais jamais loin de toi

Tu vis comme dans mon rve
Tu te reveilles tout contre moi
Chaque jour qui se lve
Me fait douter mais tu es l
A jamais, dans mes joies dans mes dsirs
Pour toujours, je voudrais caresser ton sourire

Et mme, si tu cries si tu pleures
Mme si les hommes te fonts peur
Si leur folie t'enchane les bras
Je n'serai jamais loin de toi
Et mme, si demain tu m'oublies
Si tu rves d'une autre vie
Tu peux partir l o tu voudras
Je n'serai jamais jamais loin de toi

Ouh,oh,oh,oh,oh

Si la nuit te fait peur
Seul tout au fond de ton coeur
Si tu cherches une amie, pense a moi
Je n'serai jamais loin de toi
Et mme, si demain tu m'oublies
Si tu rves d'une autre vie
Tu peux partir ou tu voudras
Je n'serai jamais jamais jamais jamais loin de toi...
Ah, ah, non, non, non, non, non
L o tu voudras
Jamais jamais loin de toi... Ah, ah, ah, ah
No, no, oh, oh
Tu peut partir l o tu voudras
Je n'serai jamais jamais moin de toi
Related for Jamais Loin De Toi tab