Song name
# A B C D E F G H I J K L M N O P Q R S T U V W X Y Z

Laaz Rockit - The Omen tab

-----------------------------------------------------------------------------
			     The Omen - Laaz Rockit
-----------------------------------------------------------------------------

Tabbed by:jtom
Email:jtom@rmusd.net

Tuning:Standard
~ = ring
/ = slide up
ph = pinch harmonic
v = vibrato
b = bend                            
h = hammer on
p = pull off                       
(0.00) = time in song

This is basically the whole song!

(0.00) (Intro, Acoustic)
e|----------------------------------------------------------------|
B|----------------------------------------------------------------|
G|----------------------------------------------------------------|
D|------4---4~--4------4---4~-------4---4~--4------5-----4--------|
A|----2---2---2------2---2--------2---2---2------7-----6------2---|
E|--0--------------3----------3-2--------------8-----7------3-----|

 (0.00) 
 (intro solo)
e|---------------------------------------------|----------------------------|
B|---------------------------------------------|--12---7----10---5/7---3-0--|
G|---------------------------------------------|----------------------------|
D|--/4phv(whammy bar down)-2/4/5/9--7\5--4\2/4-|----------------------------|
A|---------------------------------------------|----------------------------|
E|--------------------------------------------------------------------------|


e|---19------------------------------------------------------|
B|------20---17--19bendhalfway--20---12(whammy bar down)-----|
G|-----------------------------------------------------------|
D|-----------------------------------------------------------|
A|-----------------------------------------------------------|
E|-----------------------------------------------------------|
-

(verse)
e|----------------------------------------------------------------|
B|----------------------------------------------------------------|
G|----------------------------------------------------------------|
D|------4---4~--4------4---4~-------4---4~--4------5-----4--------|
A|----2---2---2------2---2--------2---2---2------7-----6------2---|
E|--0--------------3----------3-2--------------8-----7------3-----|


 (1.00)                                      [just keep playin this bit)
e|-----------------------------------------------------------------|
B|-----------------------------------------------------------------|
G|------------0--------------------0-------------------0-----------|
D|----5----5-----5---5-----5----5----5---5-----4----4----4---4-----|
A|--7----7---------7-----6----6--------6-----5----5--------5-------|
E|-----------------------------------------------------------------|



The electric is basically E5,G5,F#,C,B Power Chords. Its easy to know where to play them.

Also the power chords at (2.44) the middle solo are G, F#, and an F power chord.


(mid solo)(2.51)
e|---------------------------------------------------------------------------
B|--17~----12~---------------------------------------------------------------
G|--------------11-9-11b--9-------------------------------9h11h12--11b-9p7h9-
D|--------------------------9~---9----------------9h10h12--------------------
A|---------------------------------10\9----9h10h12---------------------------
E|---------------------------------------------------------------------------

     T     T
e|---------------------------------------------------------------|
B|-------------------------------------12(whammy bar bouncing----|
G|--12p7--11p5\4---2-0---11phb--9-7------------------------------|
D|---------------------------------------------------------------|
A|---------------------------------------------------------------|
E|---------------------------------------------------------------|


Thats all i know. i know its not perfect but hey, you gotta start somewhere.

        THE LAAAAAAAAAAAAAAAAAZZZZZZZZZZZZ RUUUUULLLLLLEEEEEESS


Tap to rate this tab
# A B C D E F G H I J K L M N O P Q R S T U V W X Y Z