Laaz Rockit - The Omen tab

These are just the acoustic parts

[-------------------------------------------------------------]
[-------------------------------------------------------------]
[-------------------------------------------------------------]
[---4------4------4----4-------4-------4----4-------4-------4-]
[-----2------2-----------2-------2------------0-------0-------]
[-0-----0------0----3-------3-------3----2-------2-------2----]

there was a time....................................

[-------------------]
[-------------------]
[-------------------]  theres the first acoustic part
[-------------------]
[---7------5------5-]
[-8---8--7---7--3---]

[----------------------------------------------------]
[----------------------------------------------------]
[----0------0-----0----0-----0-----0---0-----0-----0-]
[------4------4----------2-----2---------4-----4-----]
[--5-----5------5----3-----3-----3---2-----2-----2---]
[----------------------------------------------------]

Flesh and blood.............................

[-------------------]
[-------------------]
[-------------------]
[---4------4------5-]   theres the second
[-2---2--6---6--7---]
[-------------------]

[---------0----------------0----------------0---------------0--------]
[---0----------------0----------------0-----------0---0--------------]
[-----4-------4--------3-------3--------2-------2-------2--------2---]
[-5-----5---5---5--4-----4---4---4--3-----3---3-----3-----3----3---3-]
[--------------------------------------------------------------------]
[--------------------------------------------------------------------]
search my soul..................................


Well there you go, you have a good start on learning the song now that you have the 
acoustic tabs, let me know if i screwed anything up. thanks alot.
Tap to rate this tab
 
# A B C D E F G H I J K L M N O P Q R S T U V W X Y Z