Labi Siffre - I Dont Know What Happened To The Kids Today tab

Tuning:Standard

Fairly simple song. Just contains the following phrase:

e|--------------5-5----------------------|
B|----6-6-------6-6--------8-8------6-6--|
G|----7-7-------7-7--------7-7------7-7--|
D|----7-7------------------7-7------7-7--|
A|--5---------5----------5--------5------|
E|5---------5----------5--------5--------|  

This repeats throughout the whole song.



Alternatively can be played with a capo on the 5th fret:

e|--------------0-0----------------------|
B|----1-1-------1-1--------3-3------1-1--|
G|----2-2-------2-2--------2-2------2-2--|
D|----2-2------------------2-2------2-2--|
A|--0---------0----------0--------0------|
E|0---------0----------0--------0--------|



Can also be played without a capo on an open Dminor chord:

e|----1-1-------5-5--------3-3------1-1--|
B|----3-3-------3-3--------3-3------3-3--|
G|----2-2-------2-2--------2-2------2-2--|
D|--0---------0----------0--------0------|
A|0---------0----------0--------0--------|
E|---------------------------------------|
Tap to rate this tab
 
# A B C D E F G H I J K L M N O P Q R S T U V W X Y Z