Song name
# A B C D E F G H I J K L M N O P Q R S T U V W X Y Z

Labjacd - Mejor Chupa Ep tab

This is only part of the intro (track five on the EP) but I hope it helps.

Standard tuning

Most of this is done finger picking style, so just form the chords and finger pick it. 
often you simply add a finger to the chord.

e |-0----------0----------0-------||--------------------------------------|
B |----0----------0----------0----||----------0------------0------------0-|
G |-------0----------0----------0-||-------0------------0------------0----|
D |-------------------------------||----2------------2------------2-------|
A |-------------------------------||--------------2------------3----------|
E |-0----------3----------2-------||-0------------------------------------|
                                                                                      
bit repeats (after the double bar)

e |----------------4---------------||----------0------------------0-------|
B |-------4--5--6-------6--5--4--5-||-------1-----1------------1-----1----|
G |-4--5---------------------------||----2-----------2------2-----------2-|
D |--------------------------------||-------------------------------------|
A |--------------------------------||-0------------------3----------------|
E |--------------------------------||-------------------------------------|

  this first bit is a little bit out... I think.
e |-------0---------0--------0--------0--------0--------0-|
B |----1---------1--------1--------0--------0--------0----|
G |-4---------2--------4--------0--------2----------------|
D |-----------------------------------------------4-------|
A |-------------------------------------------------------|
E |-------------------------------------------------------|

Unfortunately here I get stuck... if you can help me out please email me!!!
Email: lord-kc@hotmail.com

for those who haven't heard of LABJACD check out www.labjacd.com  (their official website)

10rd K2
Tap to rate this tab
# A B C D E F G H I J K L M N O P Q R S T U V W X Y Z