Song name
# A B C D E F G H I J K L M N O P Q R S T U V W X Y Z

Labradford - G tab

-------------------------------------------------------------------------------
			     G - Labradford
-------------------------------------------------------------------------------
Tabbed by: David
Email: thischarmingman13@gmail.com

Tuning: Standard

Play Am chord over this. It's a pretty simple song, not a lot going on here.
e|-----------------------------------------------------------------------------|
B|-------0-1------------/5-6\3--3\1-3\1----------------------------------------|
G|---2-0-----------------------------------------------------------------------|
D|--2-2-2----------------------------------------------------------------------|
A|-0---------------------------------------------------------------------------|
E|-----------------------------------------------------------------------------|


| /  slide up
| \  slide down
| h  hammer-on
| p  pull-off
| ~  vibrato
| +  harmonic
| x  Mute note
===============================================================================
Tap to rate this tab
# A B C D E F G H I J K L M N O P Q R S T U V W X Y Z