Song name
# A B C D E F G H I J K L M N O P Q R S T U V W X Y Z

Labrinth - Earthquake tab

Labrinth Earthquake
Pretty spot on ;)
tuning standard, no capo


Palm muted, best with no capo
|------------------------------------------------------------------|
|------------------------------------------------------------------|
|------------------------------------------------------------------|
|------------------------------------------------------------------|
|--3-3-3-3-6-6-6-6-------3-3-3---3-3-3-3-6-6-6-6-------------------|
|------------------6-6-6-------------------------3-3-3-3-4-4-4-4-4-|

"Cos we'll be trashig it up somebody say"
|-3-3--6-6-6--3--3--3-|
|-3-3--6-6-6--3--3--3-|
|-5-5--8-8-8--4--4--4-|
|-5-5--8-8-8--5--5--5-|
|-3-3--6-6-6--5--5--5-|
|-3-3--6-6-6--3--3--3-|


"Say Yeah, I predict...."   (1=10)*******
|--3-3--6-6-6--6-6-6--8-8-8-|
|--3-3--6-6-6--6-6-6--8-8-8-|
|--5-5--8-8-8--7-7-7--8-8-8-|
|--5-5--8-8-8--8-8-8--1-1-1-|
|--3-3--6-6-6--8-8-8--1-1-1-|
|--3-3--6-6-6--6-6-6--8-8-8-|

2nd half of chorus
|--3-3--6-6-6--3-3--4-4-4-|
|--3-3--6-6-6--3-3--4-4-4-|
|--5-5--8-8-8--4-4--5-5-5-|
|--5-5--8-8-8--5-5--6-6-6-|
|--3-3--6-6-6--5-5--6-6-6-|
|--3-3--6-6-6--3-3--4-4-4-|

"... They're all moving"
|----------------------|
|----------------------|
|------------8-11-8----|
|----------8--------11-|
|-------10-------------|
|--8-11----------------|
Tap to rate this tab
 
# A B C D E F G H I J K L M N O P Q R S T U V W X Y Z