Song name
# A B C D E F G H I J K L M N O P Q R S T U V W X Y Z

Labrinth - Express Yourself tab

-------------------------------------------------------------------------------
                             Express Yourself - Labrinth
-------------------------------------------------------------------------------
Tabbed by:Tobi Olugbenga
E-mail:Tolugbenga@aol.com

Tuning: Standard

e|-----------------------------------------------------|
B|--5--------------------------------------------------|
G|------1-2-4-1---2-22--4--44-1------------------------| MAIN RIFF
D|--2--2-------2-------4-------4-----------------------| 
A|-----------------------------------------------------|
E|-----------------------------------------------------|

e|----16-12-----16-12-12-------------------------------|
B|----------12-----------9-10--------------------------|
G|-----------------------------------------------------|
D|-----------------------------------------------------|
A|-----------------------------------------------------|
E|-----------------------------------------------------|

Tap to rate this tab
# A B C D E F G H I J K L M N O P Q R S T U V W X Y Z