Guitaretab - guitar tabs
Song name
# A B C D E F G H I J K L M N O P Q R S T U V W X Y Z

Labwrk - Parasite tab

Parasite~ The Neighborhoods

I couldnít find a tab for this song, so I thought Iíd do it myself. Itís a fairly easy
and great for those who want to learn an entire song without getting stuck. Iím not
sure on the precise timing of everything, but if you listen to guitar hero this should 
correct (I couldnít find a recording, but I think the song is actually played 1.5x faster
If you have any corrections please comment. This is my first guitar tab, so sorry if it 
perfect. Enjoy!

Legend:
/ = Slide
h = Hammer-on
p = Pull-off
~ = Sustain
b = Bend
V = Vibrato


Intro

E|-------------------------------|
B|-------------------------------|
G|-------------------------------|
D|7-6-5-6-5-4-5-4-3-4-3-2-3-4-5-6|
A|-------------------------------|
E|-------------------------------|

Verse 1
E|-------------------------------------------------------|
B|-------------------------------------------------------|
G|-------------------------------------------------------|
D|7-7--7--7-5-7-7-7--7--7-5-7-7-7--7--7-5-7-7-7--7--7-5-7|
A|7-7--7--7-5-7-7-7--7--7-5-7-7-7--7--7-5-7-7-7--7--7-5-7|
E|5-5--5--5---5-5-5--5--5---5-5-5--5--5---5-5-5--5--5---5|


Pre-Chorus

E|-------------------------------------------------------------------|
B|-------------------------------------------------------------------|
G|-------------------------------------------------------------------|
D|-------------------------------------------------------------------|
A|----------------------------------------5--------------------------|
E|5-5---5--5--5-8-8---8---8-8-8-5-5---5--5-5-5-5-5---5--5ó5--5-5-5--5|

E|------------------------------------------------------------------------|
B|------------------------------------------------------------------------|
G|-----------------------------------------------5-5-5~~5-5-5~~5-5-7-7-7~~|
D|-----------------------------------------------5-5-5~~5-5-5~~5-5-7-7-7~~|
A|-------------------------------5---------------3-3-3~~3-3-3~~3-3-5-5-5~~|
E|--5-5-5-8-8--8--8-8-8-5-5--5--5-5-5-5--5--5-5-5-------------------------|


Chorus #1

E|------------------------------------------------------------------|
B|------------------------------------------------------------------|
G|------------------------------------------5-5-5~~5-5-5~~7-7-7~~---|
D|5-5-5-5--7-7--7--7-5-7-7-7--7-7--7--7-5-7-5-5-5~~5-5-5~~7-7-7~~--7|
A|5-5-5-5--7-7--7--7-5-7-7-7--7-7--7--7-5-7-3-3-3~~3-3-3~~5-5-5~~--7|
E|3-3-3-3--5-5--5--5---5-5-5--5-5--5--5---5----------------------3~5|


Guitar Fill #1

E|----------------------------------------|
B|----------------------------------------|
G|7~~12~~~~9~~12~~~~5~~~0~~~0-2~~~~4~6~~~~|
D|----------------------------------------|
A|----------------------------------------|
E|----------------------------------------|


Chorus #2

E|------------------------------------------------------------------------|
B|------------------------------------------------------------------------|
G|------------------------------------------------------------------------|
D|7-7--7--7-5-7-7-7--7-7--7--7-5-7-7~~~~7-10~~~7-7--7--7-5-7-7-7--7-7--7--|
A|7-7--7--7-5-7-7-7--7-7--7--7-5-7-------------7-7--7--7-5-7-7-7--7-7--7--|
E|5-5--5--5---5-5-5--5-5--5--5---5-------------5-5--5--5---5-5-5--5-5--5--|
[ Tab from: http://www.guitaretab.com/l/labwrk/148547.html ]
									  V
E|------------------------------------------------------------------------|
B|------------------------------------------------------------------------|
G|----------------5-5-5-7-7-7-7------------------------------5-5-5-5-5-5-5|
D|7-5-7-5-5-5-5-5-5-5-5-7-7-7-7-5-5-5-5-7-7-7p6~~3-6-3-1-3~~~5-5-5-5-5-5-5|
A|7-5-7-3-3-3-3-3-3-3-3-5-5-5-5-5-5-5-5-7-7------------------3-3-3-3-3-3-3|
E|5---5-------------------------3-3-3-3-5-5-------------------------------|


E|-------------------------------------------------------------------------|
B|---------------------------7-7-7--------------7-7-7----------------------|
G|-5-7-7-7-7-----------------7-7-7--------------7-7-7----------------------|
D|-5-7-7-7-7-----7-7--7--7-5-7-7-7--7-7--7--7-5-7-7-7--7-7--7--7-5-7-7-7--7|
A|-3-5-5-5-5-----7-7--7--7-5-5-5-5--7-7--7--7-5-5-5-5--7-7--5--5-5-5-7-7--7|
E|-----------3~~~5-5--5--5---5-5-5--5-5--5--5---5-5-5--5-5--5--5---5-5-5--5|


E|------------|
B|------------|
G|------------|
D|-7--7--7-5-7|
A|-7--7--7-5-7|
E|-5--5--5---5|

Letís call this the Bridge (You play 26 notes in the 5-6 part ending on a 6)

E|------------------------------------------------------------------------|
B|5-6-5-6-5-6-5-6-5-6-5-6-5-6-5-6-5-6-5-6-5-6-5-6-5-6------------7~~9~~7--|
G|----------------------------------------------------5~~-----------------|
D|----------------------------------------------------5~~3-3--3----------3|
A|----------------------------------------------------3~~3-3--3----------3|
E|-------------------------------------------------------5-5--5----------5|


E|------------------------|
B|--7-7-9~~7--------------|
G|---------------7-10--7-9|
D|------------3-----------|
A|------------3-----------|
E|------------5-----------|


		(Intro Riff)
E|--------------------------------------------|
B|--------------------------------------------|
G|--------------------------------------------|
D|7--7--7-7-7--7-6-5-6-5-4-5-4-3-4-3-2-3-4-5-6|
A|7--7--7-7-7---------------------------------|
E|5--5--5---5---------------------------------|


Guitar Solo

E|-------------------------17~~15~~12~~15~~10~~12~~8~~10------------------|
B|5-5-5-4-5-5~~~~6-6-6-5~--------------------------------5-5-5-4-5-5~~~~6-|
G|------------------------------------------------------------------------|
D|------------------------------------------------------------------------|
A|------------------------------------------------------------------------|
E|------------------------------------------------------------------------|
		Break
E|--------------8~~--------------|
B|6-6-5~-10~~8~~---10~~5~~8~~3~~5|
G|-------------------------------|
D|-------------------------------|
A|-------------------------------|
E|-------------------------------|

E|------------------------------------------------------------------------|
B|------------------------------------------------------------------------|
G|5-5-5-5-5-5-5-5-7-7-7-7---------------------------------------5-5-5-5-5-|
D|5-5-5-5-5-5-5-5-7-7-7-7-----------7-7--7--7-5-7-7-7--7--7-5-7-5-5-5-5-5-|
A|3-3-3-3-3-3-3-3-5-5-5-5-5-5-5-5---7-7--7--7-5-7-7-7--7--7-5-7-3-3-3-3-3-|
E|------------------------3-3-3-3-3-5-5--5--5---5-5-5--5--5---5-----------|

E|-----------------|
B|--------------8~~|
G|5-5-5-7-7-7-7----|
D|5-5-5-7-7-7-7----|
A|3-3-3-5-5-5-5----|
E|-----------------|

Guitar Solo #2

E|6-3----6~~6-3---6106~~6-3---6~~--------------------------------|
B|---5p3-------5p3---------5p3-----------------------------------|
G|-------------------------------0-2-4p2-------------------------|
D|--------------------------------------4p2-2-4p2----------------|
A|-----------------------------------------4-----4p2-------------|
E|--------------------------------------------------4p2h4~~4-4/8~|

Prechorus

Bridge

Ending
E|---|
B|---|
G|---|
D|7-7|
A|7-7|
E|5-5|