Song name
# A B C D E F G H I J K L M N O P Q R S T U V W X Y Z

Labyrinth - Locked Away In Me tab

Locked away
Stone


Intro. Verse
------------------------------------------------------------|
------------------------------------------------------------|
------------------------------------------------------------|
----------7---------5---------7~~~--------------------------|
-------9---------7---------0--------------------------------|
----9---------7-------0-------------------------------------|

verse 2.
---------------------------------------------------------|
---------------------------------------------------------|
---------------------------------------------------------|
-------5--5-x--3-3-x-------------------------------------|
-------5--5-x--3-3-x-------------------------------------|
-------3--3-x--1-1-x-------------------------------------|

out
--------------------------------------------|
--------------------------------------------|
--------------------------------------------|
------0------0------------------------------|
----0-----0-----9~~~~-----------------------|
--0-----0-----------------------------------|
Tap to rate this tab
 
# A B C D E F G H I J K L M N O P Q R S T U V W X Y Z