Song name
# A B C D E F G H I J K L M N O P Q R S T U V W X Y Z

Lacrimas Profundere - Fate Of Equilibrium tab

Band:  (Lacrimas Profundere)
Album: (Memorandum)
Song:  (The Fate of Equilibrium)

Version 1.0 - (29/12/2004)

Transcribed By: (Sergio Benitez)
Email:          (tostao75@hotmail.com)

Standard  EADGBe tuning

Acoustic intro


|-------------------0----------------------0-------------0-------------------|
|---------0-------0---0-----------------------1h3-----------1h3--1h3--1------|
|-------5-------5-------5-----------------------------------------------2----|
|-----7-------7-----------7-------------2-------------2----------------------|
|---0-------0-------------------------0-------------0------------------------|
|----------------------------------------------------------------------------|


|-----------------------0--------------------------------5-------------------|
|--------0h1---0-----------0-----0h1--0--3--1--0-------5---------------------|
|----------------2-----------------------------------5--------5---7----------|
|-----2-------------2-------------------------------7--------7-7-9-9---------|
|---0-------------------------------------------------------0---0---0--------|
|----------------------------------------------------------------------------|


|-----------0-------0----------0--------------0----------------0-------------|
|---------0---0-------0----------0---------------1h3-------1h3---1h3---1-----|
|-------5-------5-------5----------5--------------------------------------2--|
|-----7-------------------7----------------2-------------2-------------------|
|---0------------------------0-----------0-------------0---------------------|
|----------------------------------------------------------------------------|

|-----------------------0--------------------------------5-------------------|
|--------0h1---0-----------0-----0h1--0--3--1--0-------5---------------------|
|----------------2-----------------------------------5--------5---7----------|
|-----2-------------2-------------------------------7--------7-7-9-9---------|
|---0-------------------------------------------------------0---0---0--------|
|----------------------------------------------------------------------------|


w/ disto



|------------------|--------------------|----------------|-------------------|
|------------------|--------------------|----------------|-------------------|
|------------------|--------------------|----------------|-------------------|
|--7---------------|--3-----------------|--5-------------|--7--------3----5--|
|--7---------------|--3-----------------|--5-------------|--7--------3----5--|
|--5---------------|--1-----------------|--3-------------|--5--------1----3--|
Tap to rate this tab
 
# A B C D E F G H I J K L M N O P Q R S T U V W X Y Z