Song name
# A B C D E F G H I J K L M N O P Q R S T U V W X Y Z

Lacrosse - You Cant Say No Forever tab

-------------------------------------------------------------------------------
		You Can't Say No Forever  - Lacrosse
-------------------------------------------------------------------------------
Tabbed by: marco elisa
Email: marco_tepebe@yahoo.com

Tuning: EADGBe

I played it on Dmaj7, but I think Emaj7 fits too.

Intro:

   Dmaj7
e|-----------------------------5--------5-----------------|
B|---------------7--------7------------------7--------7---|
G|-6--6-----6-------6-------------6-------------6---------| x2
D|------7-----7-------7-----7-------7-----7-------7-----7-|
A|-5------5------5------5------5------5------5------5-----|
E|--------------------------------------------------------|

   Bm            A             Dmaj7
e|--------------------------------------------------------|
B|-3-------------2-------------7--------7----7--------7---|
G|----4-----4-------2-----2-------6-------------6---------| x2
D|------4-----4-------2-----2-------7-----7-------7-----7-|
A|-2------2------0------2------5------5------5------5-----|
E|--------------------------------------------------------|

verse:

   Dmaj7 
e|-----------------------------5--------5-----------------|
B|---------------7--------7------------------7--------7---|
G|-6--6-----6-------6-------------6-------------6---------| x2
D|------7-----7-------7-----7-------7-----7-------7-----7-|
A|-5------5------5------5------5------5------5------5-----|
E|--------------------------------------------------------|

   Bm            A             Dmaj7
e|--------------------------------------------------------|
B|-3-------------2-------------7--------7----7--------7---|
G|----4-----4-------2-----2-------6-------------6---------| x2
D|------4-----4-------2-----2-------7-----7-------7-----7-|
A|-2------2------0------2------5------5------5------5-----|
E|--------------------------------------------------------|

chorus:

just listen to the strumming pattern in the song and you'll figure it out easily.
chorus is G, Dmaj7, A, Bm.

    G      Dmaj7     A      Bm
e|--3--------5-------0------2---|
B|--3--------7-------2------3---|
G|--4--------6-------2------4---|
D|--5--------7-------2------4---|
A|--5--------5-------0------2---|
E|--3--------x-------x------x---|

    G      Dmaj7     A      Bm      A      Dmaj7
e|--3--------5-------0------2-------0--------5---|
B|--3--------7-------2------3-------2--------7---|
G|--4--------6-------2------4-------2--------6---|
D|--5--------7-------2------4-------2--------7---|
A|--5--------5-------0------2-------0--------5---|
E|--3--------x-------x------x-------x--------x---|


outro:

when they sing "pararararararara..."

   Dmaj7      Bm       A
e|--5---------2--------0--|
B|--7---------3--------2--|
G|--6---------4--------2--| x5
D|--7---------4--------2--|
A|--5---------2--------0--|
E|--x---------x--------x--|

   Dmaj7
e|--5----|
B|--7----|
G|--6----|
D|--7----|
A|--5----|
E|--x----|
Tap to rate this tab
 
# A B C D E F G H I J K L M N O P Q R S T U V W X Y Z