Song name
# A B C D E F G H I J K L M N O P Q R S T U V W X Y Z

Lacuna Coil - Tight Rope tab

Band - Lacuna Coil
Album - Comalies
Song - Tight Rope
Tuning - Low to high (BF#BEG#C#)
Tabbed by - Martin Olsen
E-mail - martin_manson_2001@yahoo.com

Okey... I know.
This is the best i can do.
But, as you mait know, Lacuna Coil plays all ther things with 7 string guitars.
But in my apininen this version is sounding just ass good. So now you haft to bye
a 7 string guitar to play Lacuna Coil tracks.
And it a lot easyer to play becuse it's in drop B.

So Enjoy.


Intro

C#|----------|
G#|----------|
E |----------|
B |----------|
F#|-55-55-55-|
B |-55-55-55-|


Pre-verse

C#|---------------------------|
G#|---------------------------|
E |---------------------------|
A |---------------------------|
F#|-5--5-5-5-5-5--5-5-5-5-5-5-|
B |-5--5-5-5-6-5--5-5-5-5-6-5-|


Pre-chorus

C#|--------------|
G#|--------------|
E |--------------|
B |--------------|
F#|-5--5-5-5-5-3-|
B |-5--5-5-5-5-3-|
    

Chorus

C#|---------------------------------------------|
G#|---------------------------------------------|
E |---------------------------------------------|
B |-----3-2-3-----3-2-3-----3-2-3---------------|
F#|-5---1-0-1-1---1-0-1-5---1-0-1-1---33-33-33*-|
B |-5---------1---------5---------1---33-33-33*-|

Bridge

C#|-------------|
G#|-------------|
E |-------------|
B |-------------|
F#|-55555-55555-|
B |-55555-55555-|

Order

Intro
Pre-verse 4x
Pre-chorus 2x
Chorus 2x
Pre-verse 4x
Pre-chorus 2x
Chorus 2x
Bridge 8x
Chorus 4x

Please.
Right me fik you think that im wrong
Tap to rate this tab
 
# A B C D E F G H I J K L M N O P Q R S T U V W X Y Z