Song name
# A B C D E F G H I J K L M N O P Q R S T U V W X Y Z

Lacuna Coil - Fragments Of Faith tab

Seven string B tuning: (BEADGbe)

Tabbed by: Ruben Meijerink


----------------------|
----------------------|
----------------------|
----------------------|
----------------------|
-------7br-------7br--|
--0---------0---------|
             
--------------------------|
--------------------------|
--------------------------|
--------------------------|
-----------------7-----6--|
-------7br----------------|
--0---------0-------0-----|

----------------------|
----------------------|
----------------------|
----------------------|
----------------------|
-------7br-------7br--|
--0---------0---------|


--------------------------|
--------------------------|
--------------------------|
--------------------------|
--------------------------|
-------7br----------------|
--0--------------3--------|
Tap to rate this tab
# A B C D E F G H I J K L M N O P Q R S T U V W X Y Z