Song name
# A B C D E F G H I J K L M N O P Q R S T U V W X Y Z

Lacuna Coil - Our Truth tab

Our Truth - Lacuna Coil
Tabbed By: Isaac Raymond

(Orchestral Intro)

Intro:
G|------------------------------|------------------------------|
D|------------------------------|------------------------------|
A|-------2--2------3--3---------|-------2--2------3--3---------|
E|------------------------------|------------------------------|
B|--0--0------0--0------0-1-0-1-|--0--0------0--0------0-1-0-1-|

G|------------------------------|----------------------------|
D|------------------------------|----------------------------|
A|-------2--2------3--3---------|-------2--2------3--3-------|
E|------------------------------|----------------------------|  (x2)
B|--0--0------0--0------0-1-0-1-|--0--0------0--0------0-1---|

(Guitar Riff x2)

Verse:
G|------------------------------|------------------------------|
D|------------------------------|------------------------------|
A|-------2--2------3--3---------|-------2--2------3--3---------|
E|------------------------------|------------------------------|
B|--0--0------0--0------0-1-0-1-|--0--0------0--0------0-1-0-1-|

G|------------------------------|----------------------|
D|------------------------------|----------------------|
A|-------2--2------3--3---------|--------------3-------|
E|------------------------------|--3-3-3-2-2-2---------|
B|--0--0------0--0------0-1-0-1-|----------------------|

G|------------------------|------------------------|
D|------------------------|------------------------|
A|--2---------2-----------|--2---------2-----------|
E|------------------------|------------------------|
B|----0--0--0---0--0------|----0--0--0---0--0------|

G|------------------------|---------------------------|
D|------------------------|---------------------------|
A|--2---------2-----------|--------------3------------|
E|------------------------|--3-3-3-2-2-2--------------|
B|----0--0--0---0--0------|-------------------1---1---|

 
Chorus:
G|------------------------|------------------------|
D|------------------------|------------------------|
A|------------------------|------------------------|
E|------------------------|---------1-----1--1-3---| (x3)
B|--5------1-----1--1-3---|--0---------------------|

G|------------------------|-------|
D|------------------------|-------|
A|------------------------|-------|
E|------------------------|--1----|
B|--5------1-----1--1-3---|-------|

Pre-verse: “Come on and tease me…”
G|------------------------------|------------------------------|
D|------------------------------|------------------------------|
A|-------2--2------3--3---------|-------2--2------3--3---------|
E|------------------------------|------------------------------|
B|--0--0------0--0------0-1-0-1-|--0--0------0--0------0-1-0-1-|

G|------------------------------|----------------------------|
D|------------------------------|----------------------------|
A|-------2--2------3--3---------|-------2--2------3--3-------|
E|------------------------------|----------------------------|  
B|--0--0------0--0------0-1-0-1-|--0--0------0--0------0-1---|

Verse 2:
G|------------------------------|------------------------------|
D|------------------------------|------------------------------|
A|-------2--2------3--3---------|-------2--2------3--3---------|
E|------------------------------|------------------------------| (x2)
B|--0--0------0--0------0-1-0-1-|--0--0------0--0------0-1-0-1-|

(Guitar Riff)

G|------------------------|------------------------|
D|------------------------|------------------------|
A|--2---------2-----------|--2---------2-----------|
E|------------------------|------------------------|
B|----0--0--0---0--0------|----0--0--0---0--0------|

G|------------------------|-------------------------|---------------------------|
D|------------------------|-------------------------|---------------------------|
A|--2---------2-----------|--------------3----------|--------------3------------|
E|------------------------|--3-3-3-2-2-2------------|--3-3-3-2-2-2--------------|
B|----0--0--0---0--0------|-------------------------|-------------------1---1---|

Chorus (as before)

 
Bass Solo:
G|------------------------------|
D|------------------------------|
A|-------2--2------3--3---------|
E|------------------------------| (x7)
B|--0--0------0--0------0-1-0-1-|

G|---------------------------|
D|---------------------------|
A|--------------3------------|
E|--3-3-3-2-2-2--------------|
B|-------------------1---1---|

Chorus (as before)

(String Interlude)

Outro:
G|------------------------------|------------------------------|
D|------------------------------|------------------------------|
A|-------2--2------3--3---------|-------2--2------3--3---------|
E|------------------------------|------------------------------|
B|--0--0------0--0------0-1-0-1-|--0--0------0--0------0-1-0-1-|

G|------------------------------|----------------------------|
D|------------------------------|----------------------------|
A|-------2--2------3--3---------|-------2--2------3--3-------|
E|------------------------------|----------------------------|  (x2)
B|--0--0------0--0------0-1-0-1-|--0--0------0--0------0-1---|

Finale:
G|------------------------|--------------------------|
D|------------------------|--------------------------|
A|---------2--------------|-----3-----3--------------|
E|------------------------|--------------------------| (x3)
B|--0------------0--0--0--|--0-----------0--1--0--1--|

G|------------------------|-------------||
D|------------------------|-------------||
A|---------2--------------|-------------||
E|------------------------|-------------||
B|--0------------0--0--0--|--0--1-------||
Tap to rate this tab
 
# A B C D E F G H I J K L M N O P Q R S T U V W X Y Z