Guitaretab - guitar tabs
Song name
# A B C D E F G H I J K L M N O P Q R S T U V W X Y Z

Lacuna Coil - Cold Heritage tab

Cold Heritage


Main riff  plays through most of the song

e|-1------1------|
B|---1------1----|
G|-----3---------|
D|------------3--|
A|---------------|
E|---------------|

Chorus  timings are hard to figure out here: listen to the song for a better idea
[ Tab from: http://www.guitaretab.com/l/lacuna-coil/64506.html ]
e|--------------------------------------------------------------------|
B|--------------------------------------------------------------------|
G|10-101010\8-888/10-101010\8-888/10-101010\8-888/10-101010/11-111111-|
D| x- x x x\x-xxx/ x- x x x\x-xxx/ x- x x x\x-xxx/ x- x x x/ x--------| x x x
A| 8- 8 8 8\6-666/ 8- 8 8 8\6-666/ 8- 8 8 8\6-666/ 8- 8 8 8\ 9- 9 9 9-|
E|--------------------------------------------------------------------|

Ending riff  played over the chorus

e|-------------------------------------|
B|-------------------------------------|
G|-------------------------------------|
D|11-101013------11111010151513h15p13-|
A|-----------1313----------------------|
E|-------------------------------------|
Related for Cold Heritage tab