Song name
# A B C D E F G H I J K L M N O P Q R S T U V W X Y Z

Lacuna Coil - You Create tab

Lacuna Coil - You Create - Karmacode

Tabbed by Elvisz (elvisz@kornkids.com)
                 (elvisz84@yahoo.com)
Tunnins: 7 String Tuned Low To High (B E A D G b e)

this song can be played on 6 sring as well. They are using 7 string ESP on the album, 
why i tabbed it on 7 string.

Guitar1:
|-------1-------1------|-------1-------1-----|---------1---------------1---|
|--------------------1-|-------------------1-|-----1-----1-----0-----1---1-|
|---0-------0----------|---0-------0---------|---0---------0-------0-------|
|-5---5---5---5----5---|-5---5---5---5---5---|-5-----5-------5---5---------|
|----------------------|---------------------|-----------------------------|
|----------------------|---------------------|-----------------------------|
|----------------------|---------------------|-----------------------------|

|---------|---------|---------|---------|
|-------1-|-------1-|-------1-|-------1-|
|---0---0-|---0---0-|---0---0-|---0---0-|
|-5---5---|-5---5---|-5---5---|-5---5---|
|---------|---------|---------|---------|
|---------|---------|---------|---------|
|---------|---------|---------|---------|

Guitar2:
|----------------------|---------------------|
|----------------------|---------------------|
|----------------------|---------------------|
|----------------------|----------------10---|
|-7-8-10--7-8-10/1110-|-7-8-10--7-8-10-------|
|----------------------|---------------------|
|----------------------|---------------------|
Tap to rate this tab
# A B C D E F G H I J K L M N O P Q R S T U V W X Y Z