Song name
# A B C D E F G H I J K L M N O P Q R S T U V W X Y Z

Ladle Fight - Allergic To Water tab

Allergic to Water on Ladle Fight's First Album "Ladle Fight"
http://www.ladlefight.blogspot.com/
By: Your fellow jew.
Intro:
E|----------------------------------------------------------------------------|
B|----------------------------------------------------------------------------|
G|----------------------------------------------------------------------------|
D|----------------------------------------------------------------------------|
A|------3-5-7-----------------3-5-7-7-7-7-7-6---------------------------------|
E|-5--5-------5--5-0-3-5-5--5-------------------------------------------------|

Break:
E|----------------------------------------------------------------------------|
B|----------------------------------------------------------------------------|
G|----------------------------------------------------------------------------|
D|----------------------------------------------------------------------------|
A|-7-5-3-3-3-3-------------7-5-3-3-3-3----------------------------------------|
E|-------------5-3-0-0-0-0-------------7-7-7-7-7-7-7-7------------------------|
Tap to rate this tab
 
# A B C D E F G H I J K L M N O P Q R S T U V W X Y Z