Song name
# A B C D E F G H I J K L M N O P Q R S T U V W X Y Z

Lads - Creator tab

Highlighted       Show chord diagrams
----------------------------------------------------------------------------
			     CREATOR - The Lads
----------------------------------------------------------------------------
Tabbed by: Fogier


Tuning: Standard

Intro:

      D           G#minor       B             A2
e|---------------3--3--3---------------------------------------------------|
B|----5--5--5----5--5--5--------2--2--2------------------------------------|
G|----7--7--7----5--5--5--------4--4--4-------2--2--2----------------------|
D|----7--7--7----3--3--3--------4--4--4-------2--2--2----------------------|
A|----7--7--7----3--3--3--------4--4--4------------------------------------|
E|---------------3--3--3---------------------------------------------------|

     D           G#minor       B              A2
e|---------------3--3--3---------------------------------------------------|
B|----5--5--5----5--5--5--------2--2--2------------------------------------|
G|----7--7--7----5--5--5--------4--4--4-------2--2--2----------------------|
D|----7--7--7----3--3--3--------4--4--4-------2--2--2----------------------|
A|----7--7--7----3--3--3--------4--4--4------------------------------------|
E|---------------3--3--3---------------------------------------------------|

    D           G#minor         B            A2              B
e|---------------3--3--3---------------------------------------------------|
B|----5--5--5----5--5--5--------2--2--2----------------------2--2--2-------|
G|----7--7--7----5--5--5--------4--4--4-------2--2--2--------4--4--4-------|
D|----7--7--7----3--3--3--------4--4--4-------2--2--2--------4--4--4-------|
A|----7--7--7----3--3--3--------4--4--4----------------------4--4--4-------|
E|---------------3--3--3---------------------------------------------------|

    G#minor                        
e|--3--3--3---|
B|--5--5--5---|
G|--5--5--5---|
D|--3--3--3---|
A|--3--3--3---|
E|--3--3--3---|



Chorus:

    D         A         G           E
e|----------------------3--------------------------------------------------|
B|----------------------2-----------2--------------------------------------|
G|------------2---------------------2--------------------------------------|
D|--2---------2---------------------3--------------------------------------|
A|--3---------2------------------------------------------------------------|
E|--2-------------------3--------------------------------------------------|

    D         A         G           E         G        E        G
e|----------------------3---------------------3-----------------3----------|
B|----------------------2-----------2---------2--------2--------2----------|
G|------------2---------------------2------------------2-------------------|
D|--2---------2---------------------3------------------2-------------------|
A|--3---------2------------------------------------------------------------|
E|--2-------------------3---------------------2-----------------2----------|

       E        G         D
e|--------------3------------------|
B|-----2--------2---------5--------|
G|-----2------------------7--------|
D|-----3------------------7--------|
A|------------------------7--------|
E|--------------2------------------|



BRIDGE:
                
e|---10---10---10---10-----9----9----9---9----7---7---7---7----3---3---3-|
B|---12---12---12---12-----11---11---11--11---9---9---9---9----5---5---5-|
G|---12---12---12---12-----11---11---11--11---9---9---9---9----5---5---5-|
D|---10---10---10---10-----9----9----9---9----7---7---7---7----3---3---3-|
A|---10---10---10---10-----9----9----9---9----7---7---7---7----3---3---3-|
E|---10---10---10---10-----9----9----9---9----7---7---7---7----3---3---3-|

e|---10---10---10---10-----9----9----9---9----7---7---7---7----3---3---3-|
B|---12---12---12---12-----11---11---11--11---9---9---9---9----5---5---5-|
G|---12---12---12---12-----11---11---11--11---9---9---9---9----5---5---5-|
D|---10---10---10---10-----9----9----9---9----7---7---7---7----3---3---3-|
A|---10---10---10---10-----9----9----9---9----7---7---7---7----3---3---3-|
E|---10---10---10---10-----9----9----9---9----7---7---7---7----3---3---3-|


Tap to rate this tab
# A B C D E F G H I J K L M N O P Q R S T U V W X Y Z