Lady And Bird - La Ballade Of Lady And Bird tab

-----------------------------------------------------------------------------
		    La Ballade of Lady & Bird - Lady & Bird
-----------------------------------------------------------------------------
Tabbed by: The_BoneLESS
Email: elastomaster@gmail.com

I have only started to play the guitar a few months ago and while practicing The Ballad
Casey Deiss, I somewhat heard La Ballade of Lady & Bird in the back of my head. I worked
it and finally managed to play this great song. As I saw a few people asking for the 
on YouTube and noticed their absence on this website, I thought I'd write them down.

If you find any error or mistake, please let me know.


Tuning: Standard

- Repeat 2x
e|-------------------|
B|-------0h1p0-------|
G|-----0-------0---0-|
D|---2-----------2---|
A|-3-----------------|
E|-------------------|

- Repeat 2x
e|-------------------|
B|-------0h1p0-------|
G|-----0-------0---0-|
D|---2-----------2---|
A|-------------------|
E|-0-----------------|

- Repeat 2x
e|-------------------|
B|-------0h1p0-------|
G|-----0-------0---0-|
D|---2-----------2---|
A|-3-----------------|
E|-------------------|

- Repeat 2x
e|-------------------|
B|-------0h1p0-------|
G|-----0-------0---0-|
D|---2-----------2---|
A|-------------------|
E|-0-----------------|

e|---------------------------------|
B|-------1-------1-------1---------|
G|-----2---2---2-------2-----------|
D|---2-------2-------2-------------|
A|-0---------------0-------2---3---|
E|---------------------------------|

e|---------------------------------|
B|-------0-------0-------0-------0-|
G|-----0---0---0-------0---0---0---|
D|---2-------2-------2-------2-----|
A|---------------------------------|
E|-0---------------0---------------|

e|---------------------------------|
B|-------1-------1-------1---------|
G|-----2---2---2-------2-----------|
D|---2-------2-------2-------------|
A|-0---------------0-------2---3---|
E|---------------------------------|

e|---------------------------------|
B|-------0-------0-----------------|
G|-----0---0---0-------------------|
D|---2-------2-----2-(let ring)----|
A|---------------------------------|
E|-0-------------------------------|


Let ring the last note and loop from the beginning.

************************************

| /   slide up
| \   slide down
| h   hammer-on
| p   pull-off
| ~   vibrato
| +   harmonic
| x   Mute note
| b   Bend
| pb  Pre-bend
| br  Bend release
| pbr Pre-bend release
| brb Bend release bend

************************************
Tap to rate this tab
 
# A B C D E F G H I J K L M N O P Q R S T U V W X Y Z