Song name
# A B C D E F G H I J K L M N O P Q R S T U V W X Y Z

Lady Antebellum - Need You Now tab

-------------------------------------------------------------------------------
			    Need You Now - Lady Antebellum
-------------------------------------------------------------------------------
Tabbed by:mattdef128
Email:mattdef128@aol.com

There a some extremely close tabs out there for this song and no one has the little piano part. 
Here is the 100% correct way to play Need You Now by Lady Antebellum.

Tuning:Standard
Capo 4
Here is the piano intro/outro
e|--11-12---------11-12--------11-12----------|
B|--------12--11--------9--10---------12--11--|
G|--------------------------------------------|
D|--------------------------------------------|
A|--------------------------------------------|
E|--------------------------------------------|
Chords
   F  Am   C   Em  G  G/B Gsus G
e|-1---0---0---0---3---0---3----3-|
B|-1---1---1---0---3---3---1----0-|
G|-2---2---0---0---0---0---0----0-|
D|-3---2---2---2---0---0---0----0-|
A|-3---0---3---2---2---2---2----2-|
E|-1---x---x---0---3---x---3----3-|


F                                                   Am
Picture perfect memories scattered all around the floor
F                                                  Am
Reaching for the phone 'cause I can't fight it anymore
      F                            Am
And I wonder if I ever cross your mind
          F                F
For me it happens all the time

              
       C                                      Em
It's a quarter after one, I'm all alone and I need you now
C                                                  Em
Said I wouldn't come, but I lost all control and I need you now
       F                               F                  F Am
And I don't know how I can do without, I just need you now


 F                                                 Am
Another shot of whiskey, can't stop looking at the door
F                                                 Am
Wishing you'd come sweeping in the way you did before
      F                            Am
And I wonder if I ever cross your mind
          F                F
For me it happens all the time


       C                                           Em
It's a quarter after one, I'm a little drunk and I need you now
C                                                  Em
Said I wouldn't come, but I lost all control and I need you now
       F                               F               
And I don't know how I can do without, I just need you now

Solo:
E|--12--14/16--16--14p12--14/16--12h14--11h14--11h14------|
B|----------------------------------------------------12--|
G|--------------------------------------------------------|
D|--------------------------------------------------------|
A|--------------------------------------------------------|
E|--------------------------------------------------------|

E|------9h11/12/14/16--18b19--19--18b19--19--19--16--16--16--18b19--19--19--12--12h14b16--16--|
B|--12----------------------------------------------------------------------------------------|
G|--------------------------------------------------------------------------------------------|
D|--------------------------------------------------------------------------------------------|
A|--------------------------------------------------------------------------------------------|
E|--------------------------------------------------------------------------------------------|

Chords over solo:
Am G/B C (Em) F Gsus G x2

         F                               Am G9
Yes I'd rather hurt than feel nothing at all


       C                                      Em
It's a quarter after one, I'm all alone and I need you now
      C                                                  Em
And I said I wouldn't call, but I'm a little drunk and I need you now
       F                               F               C
And I don't know how I can do without, I just need you now
Em               C  Em C
 I just need you now
Em                  C  Em C
 Oh baby I need you now
Tap to rate this tab
 
# A B C D E F G H I J K L M N O P Q R S T U V W X Y Z