Song name
# A B C D E F G H I J K L M N O P Q R S T U V W X Y Z

Lady Antebellum - Love This Pain tab

Song: Love This Pain
Artist: Lady Antebellum
Album: Need You Now
Questions or Corrections? Email: jschep616@gmail.com

This is the intro riff for Love This Pain by Lady Antebellum.  This riff is also heard 
the rest of the song in between the chorus and verses and things like that.  Listening to 
song helps a lot.

e|------7----------------7-----------11h12--12--12--12--11--11--9--9--7--7--|
B|7--9-----7--9----7--9-----7--9--9-----------------------------------------|
G|--------------------------------------------------------------------------|
D|--------------------------------------------------------------------------|
A|--------------------------------------------------------------------------|
E|--------------------------------------------------------------------------|


e|------7----------------7----------------11h12---12--12--12--11--14--------|
B|7--9-----7--9----7--9-----7--9--9-----------------------------------------|
G|--------------------------------------------------------------------------|
D|--------------------------------------------------------------------------|
A|--------------------------------------------------------------------------|
E|--------------------------------------------------------------------------|

Hope this helps!  If you have any questions, comments, or corrections feel free to shoot 
an email!  Enjoy!!
Tap to rate this tab
 
# A B C D E F G H I J K L M N O P Q R S T U V W X Y Z