Song name
# A B C D E F G H I J K L M N O P Q R S T U V W X Y Z

Lady Antebellum - American Honey chords

Highlighted       Show chord diagrams
-------------------------------------------------------------------------------
			     SONG NAME - Band Name
-------------------------------------------------------------------------------
Tabbed by: Say-10
Email:

Tuning:Db Ab Db Gb Ab Db (DADGAD down 1/2 step)

Intro:

db|-+12----0---0--0----0---0~~---0--0---0--0~~------------------------------|
Ab|-+12----0---0--0----0---0~~---0--0---0--0~~------------------------------|
Gb|-+12----7---9--9-\-11--11~~--11-11-/-9--7~~------------------------------|
Db|-+12---------------------------------------------------------------------|
Ab|-+12---------------------------------------------------------------------|
Db|-+12---------------------------------------------------------------------|

Verse Chords:

       D     Bm      G     Fb
db|----0------0------0------0-----------------------------------------------|
Ab|----0------0------0------0-----------------------------------------------|
Gb|----2------7------4------0-----------------------------------------------|
Db|----0------0------5------2-----------------------------------------------|
Ab|----0------x------x------x-----------------------------------------------|
Db|----0------9------5------2-----------------------------------------------|


Chorus Chords:

      G     D    Bm    A    
db|---0-----0-----0----0----------------------------------------------------|
Ab|---0-----0-----0----0----------------------------------------------------|
Gb|---4-----2-----7----6----------------------------------------------------|
Db|---5-----0-----0----7----------------------------------------------------|
Ab|---x-----0-----x----x----------------------------------------------------|
Db|---5-----0-----9----7----------------------------------------------------|


Bridge Chords:

        Bm     A    G    D    Fb
db|------0-----0----0----0-----0--------------------------------------------|
Ab|------0-----0----0----0-----0--------------------------------------------|
Gb|------7-----6----4----2-----0--------------------------------------------|
Db|------0-----7----5----0-----2--------------------------------------------|
Ab|------x-----x----x----0-----x--------------------------------------------|
Db|------9-----7----5----4-----2--------------------------------------------



Verse:
         D         
She grew up on a side of the road
                       Bm
Where the church bells ring and strong love grows
            G
She grew up good
            Fb
She grew up slow
     D
Like American honey

D
Steady as a preacher

Free as a weed
                     Bm
Couldn't wait to get goin'

But wasn't quite ready to leave
   G                 Fb
So innocent, pure and sweet
        D
American honey


Chorus:
          G          D
There's a wild, wild whisper
        Bm      A
Blowing in the wind
G              D            A
Calling out my name like a long lost friend
     G          D           Bm       A
Oh I miss those days as the years go by
     G
Oh nothing's sweeter than summer time
D
And American honey

Verse:

                 D
Get caught in the race

Of this crazy life
              Bm
Trying to be everything can make you lose your mind
        G               Fb
I just wanna go back in time
          D
To American honey, yea


Chorus:
          G          D
There's a wild, wild whisper
        Bm      A
Blowing in the wind
G              D            A
Calling out my name like a long lost friend
     G          D           Bm       A
Oh I miss those days as the years go by
     G
Oh nothing's sweeter than summer time
D
And American honey

Bridge:
         Bm  A   G
Gone for so long now
            G      D     A
I gotta get back to her somehow
        D
To American honey

repeat bridge chords strummed


Chorus:
          G          D
There's a wild, wild whisper
        Bm      A
Blowing in the wind
G              D            A
Calling out my name like a long lost friend
     G          D           Bm       A
Oh I miss those days as the years go by
     G
Oh nothing's sweeter than summer time
D
And American honey




************************************

| /   slide up
| \   slide down
| h   hammer-on
| p   pull-off
| ~   vibrato
| +   harmonic
| x   Mute note
| b   Bend
| pb  Pre-bend
| br  Bend release
| pbr Pre-bend release
| brb Bend release bend

************************************
Tap to rate this tab
# A B C D E F G H I J K L M N O P Q R S T U V W X Y Z