Song name
# A B C D E F G H I J K L M N O P Q R S T U V W X Y Z

Lady Antebellum - Cant Take My Eyes Off You tab

Can't Take My Eyes Off You (Intro)
by Lady Antebellum

emphasize notes in a parenthesis ()

      G                    Em                    C
e|-------------------------------------------------------(3)-------|
B|---(0)-------(0)-(1)-(3)-(0)------(0)-(1)-(3)-(1)---------(1)----|
G|----------0--------------------0--------------------0--------(0)-|
A|-------0----0---------------2----2---------------2----2----------|
D|---(2)-------------------(2)------------------(3)----------------|
E|-----------------------------------------------------------------|
    D
e|-(2)------(2)-------|
B|--------3----(3)----|
G|-----2----------(2)-|   REPEAT
A|-(0)----------------|
D|--------------------|
E|--------------------|

It's my first time doing a tab so pls go easy on me :)
If I there's something wrong with it pls comment. And pls note that this is only the INTRO.
Tap to rate this tab
 
# A B C D E F G H I J K L M N O P Q R S T U V W X Y Z