Lady Antebellum - Need You Now tab

Morthy's first guitar tab...

Decided to upload this because I can't find another fingerstyle tab on 
UltimateGuitar. Standard tuning, no capo required. NOT the full song, apologies.


-- INTRO -- 

e|-7---8-0-1---0---7-8-0-|
B|-----------------------|
G|-----------------------|
D|-----------------------|
A|-----------------------|
E|---------0---0-------0-|

-- CHORUS ONLY -- 

e|---------------------------5-------|
B|---------------2-2-0-2-0-2-5-2-2-0-|
G|0-0-5-7-7-5-7---------------------2|
D|------------7----------------------|
A|-----------------------------------|
E|0--------------2-----2---2---2----2|

It's a quarter after one, I'm all alone and I need you now

e|----------------2---2---2-7--------|
B|1-2-2-0-2-----1---1---1-----2-2-0--|
G|----------1-1---2---2---2-7-------2|
D|-----------------------------------|
A|-----------------------------------|
E|0-2-----2-1---1---1---------2-----2|

Said I wouldn't call but I lost all control and I need you now

e|-----------------------------------|
B|----5---------5--------------------|
G|1-1---1-1-0-0---0-0-5-7-8-7-7-5-3--|
D|-----------------------------------|
A|-----------------------------------|
E|0-----0---0-----0---0-0-----0-0-0--|

And I don't know how I can do without, I just need you now

(last 3 notes, let ring)

==========================================================================
Tabbed by Morthy, please rate and comment. 
Tap to rate this tab
 
# A B C D E F G H I J K L M N O P Q R S T U V W X Y Z