Song name
# A B C D E F G H I J K L M N O P Q R S T U V W X Y Z

Lady Antebellum - We Owned The Night chords

Highlighted       Show chord diagrams
-------------------------------------------------------------------------------
			     We Owned The Night - Lady Antebellum
-------------------------------------------------------------------------------
Tabbed by:Dan
Email:ladyantebellumfan24@yahoo.com

Tuning: Standard  Capo 6th
 Hey. This is a tab for the main riff of the song. This is how Dave plays it in the studio.

e|---------------------------------------------------------------------------------------|
B|---------------------------------------------------------------------------------------|
G|------2h4----2p0-----------------------------------------------------------------------|
D|-------------------4----4/5----2h4---2p0-----------------------------------------------|
A|-------------------------------------------3p2p0---------------------------------------|
E|---------------------------------------------------3-----------------------------------|

And here are the chords. On a side note, you can either play the riff above, or you 
could just play a G Chord. Also, the chords start out
when the Mandolin comes in, not during the synth part.

Riff: G

G
Tell me have you ever wanted
Someone so much it hurts?
G
Your lips keep trying to speak
But you just cant find the words
Cadd9
Well I had this dream once;
D
I held it in my hands

Riff

G
She was the purest beauty
But not the common kind
G
She had a way about her
That made you feel alive
Cadd9
And for a moment
D
You made the world stand still

Riff

     Em7  Cadd9     G
Yeah we owned the night

Riff

G
You had me dim the lights;
You danced just like a child
G
The wine spilled on your dress
And all you did was smile
Cadd9
Yeah, it was perfect
D
I hold it in my mind

Riff

      Em7  Cadd9     G
Yeah, we owned the night

Solo: Em7 Cadd9

Em7
When the summer rolls around
And the sun starts sinking down
Cadd9
I still remember you
Oh, I remember you
Em7
And I wonder where you are
Are you looking at those same stars again?
Cadd9             D
Do you remember when?

G
We woke under a blanket
All tangled up in skin
G
Not knowing in that moment
Wed never speak again
Cadd9
But it was perfect;
D
I never will forget

Riff

Em7      Cadd9      G
When we owned the night

Riff

Em7        Cadd9     G
Yeah, we owned the night

Outro:

Riff x6

End

This is almost 100% accurate, and if you have any comments or corrections, feel free to 
email me. Thanks.
Tap to rate this tab
# A B C D E F G H I J K L M N O P Q R S T U V W X Y Z