Song name
# A B C D E F G H I J K L M N O P Q R S T U V W X Y Z

Lady Antebellum - We Owned The Night tab

-------------------------------------------------------------------------------
			     We Owned The Night Intro - Lady Antebellum
-------------------------------------------------------------------------------
Tabbed by:Dan Ryan
Email:ladyantebellumfan24@yahoo.com

Tuning: Standard  Capo 6th
 Hey. This is a tab for the main riff of the song. This is how Dave plays it in the 
studio. It can be played on Acoustic Guitar, Electric Guitar,
or a mandolin.

e|---------------------------------------------------------------------------------------|
B|---------------------------------------------------------------------------------------|
G|------2h4----2p0-----------------------------------------------------------------------|
D|-------------------4----4/5----2h4---2p4-----------------------------------------------|
A|-------------------------------------------3p2p0---------------------------------------|
E|---------------------------------------------------3-----------------------------------|

Thats It. Hopefully More to come. Thanks!
Tap to rate this tab
# A B C D E F G H I J K L M N O P Q R S T U V W X Y Z