Song name
# A B C D E F G H I J K L M N O P Q R S T U V W X Y Z

Lady Antebellum - Own The Night tab

-------------------------------------------------------------------------------
			     OWN THE NIGHT - Lady Antebellum
-------------------------------------------------------------------------------
Tabbed by:hbgaming
Concert Key C#
Capo I (1st fret) Key of C

Tuning:Standard EADGBe

(The first part of the song is played by mandolin, but we can play it on guitar too :)

**Tab is written relative to capo

Intro/Verse Lead Guitar (this is a general progression for lead, they play around these 
notes a lot, but it's country, what did you except!)

(Notes in () are typically played by rhythm guitar or a second guitar)
e|---------------------------------------------------------------------------|
B|---------------------------------------------------------------------------|
G|---7h9--999p7--777p5--55p4--4h5--55p4--0--10---9---7-----------------------|
D|------------------------------------------(3)-(2)-(0)--10------------------|
A|-------------------------------------------------------(3)-----------------|
E|---------------------------------------------------------------------------|

Intro/Verse Rhythm Guitar

      C Major       F Major(Fmaj7 sound good too)   G Major
e|------0----------------1-----------------------------3---------------------|
B|------1----------------1-----------------------------3---------------------|
G|------0----------------2-----------------------------4---------------------|
D|------2----------------3-----------------------------5---------------------|
A|------3----------------3-----------------------------5---------------------|
E|------x----------------1-----------------------------3---------------------|

(starts on "And We Own the Night"

     A Minor    F Major     C Major
e|------0----------1-----------0---------------------------------------------|
B|------1----------1-----------1---------------------------------------------|
G|------2----------2-----------0---------------------------------------------|
D|------2----------3-----------2---------------------------------------------|
A|------0----------3-----------3---------------------------------------------|
E|------x----------1-----------x---------------------------------------------|

Hopefully this can get you started. Enjoy.

************************************
| h   hammer-on
| p   pull-off
Tap to rate this tab
 
# A B C D E F G H I J K L M N O P Q R S T U V W X Y Z