Song name
# A B C D E F G H I J K L M N O P Q R S T U V W X Y Z

Lady Antebellum - We Owned The Night tab

-------------------------------------------------------------------------------
			          WE OWNED THE NIGHT - LADY ANTEBELLUM
-------------------------------------------------------------------------------
Tabbed by: ANDREW
Email: HIMMELSUCHEN@AOL.COM

Tuning: STANDARD TUNING, CAPO 6


RIFF I: THIS RIFF IS PLAYED OVER AND OVER AND OVER
e|--------------------------------------------------------------------------|
B|--0-(0)-0-(0)---------------------------1-p0----0--0----------------------|
G|--2-/4--2-p0---0---0-(0)--0-(0)--0-(0)--0-(0)---2--0----------------------|
D|---------------4---4-/5---2-h4---2-p0-------------------------------------|
A|--------------------------------------------------------------------------|
E|--------------------------------------------------------------------------|

VERSE: RIFF I X2, THEN:
e|--------------------------------------------------------------------------|
B|---0-h1------1--------1p0--1----------------------------------------------|
G|---0-h2--------2-----------0--------then back to RIFF I-------------------|
D|---------------------------2----------------------------------------------|
A|---0-h3---3----------------0----------------------------------------------|
E|--------------------------------------------------------------------------|

ACOUSTIC CONTINUES WITH RIFF I X2, C, Am7

electric guitar (no capo)
e|--------------------------------------------------------------------------|
B|---------------------------------7----------------------------------------|
G|--6-----------6-6----------6-----6----------------------------------------|
D|--6-(4 beats)-6-6--------6---6---8----------------------------------------|
A|--4-----------4-4----8h9---------6----------------------------------------|
E|--------------------------------------------------------------------------|

RIFF I (for elec. guitar, no capo)
e|--------------------------------------------------------------------------|
B|---------------------------7p6--------------------------------------------|
G|--8h10-8p6-5-5/6---------------8-6----------------------------------------|
D|-----------------8h10-8p6-------------------------------------------------|
A|--------------------------------------------------------------------------|
E|--------------------------------------------------------------------------|

ACOUSTIC CHORUS (Em, D/F#, G)
e|--------------------------------------------------------------------------|
B|---3-------3--------------------------------------------------------------|
G|---0-------2--------------------------------------------------------------|
D|---2-------0----------RIFF I----------------------------------------------|
A|---2-------0--------------------------------------------------------------|
E|---0-------2--------------------------------------------------------------|

VERSE 2 CONTINUES AS THE FIRST
CHORUS 2: Em, D/F#, G (no RIFF I)

GUITAR SOLO, ELECTRIC, NO CAPO  
e|--------------------------------------------------------------------------|
B|--------------------------------------------------------------------------|
G|--8p6---6--8p6---6--8p6-----8b10--8--6------------------------------------|
D|------8--------8--------8----------------8~-------------------------------|
A|--------------------------------------------------------------------------|
E|--------------------------------------------------------------------------|

e|--11-p9-----9--11-p9-----9-------9--/13--11--9----------------------------|
B|--9-(9)--11----9-(9)--11----9h11----/11--9---9--11--11b12r11--------------|
G|--------------------------------------------------------------------------|
D|--------------------------------------------------------------------------|
A|--------------------------------------------------------------------------|
E|--------------------------------------------------------------------------|

ACOUSTIC PLAYS Em, C through SOLO/BRIDGE

PRETTY EASY SONG. ENJOY.
************************************

| /   slide up
| \   slide down
| h   hammer-on
| p   pull-off
| ~   vibrato
| +   harmonic
| x   Mute note
| b   Bend
| pb  Pre-bend
| br  Bend release
| pbr Pre-bend release
| brb Bend release bend

************************************
Tap to rate this tab
# A B C D E F G H I J K L M N O P Q R S T U V W X Y Z