Guitaretab - guitar tabs
Song name
# A B C D E F G H I J K L M N O P Q R S T U V W X Y Z

Lady Gaga - Poker Face tab

-------------------------------------------------------------------------------
			     Poker Face – Lady Gaga
-------------------------------------------------------------------------------
Tabbed by: dapinayroxtar31

Tuning: standard

Intro/Verse (x7) “I wanna hold em...”
e|-------------------------------------------------|-------------------------|
B|-------------------------------------------------|-------------------------|
G|-------------------------------------------------|-------------------------|
D|---6-6-------------6-6-----4-4-------------------|-------------------------|
A|-----------6-6---------7-7-----------------------|-------------------------|
E|-------4-4-----4-4-------------2-2---------------|-------------------------|


Pre-Chorus “Luck and intuition...”
e|----------------|----------------|----------------|----------------|-------|
B|----------------|----------------|----------------|----------------|-------|
G|----------------|---8------------|----------------|---8------------|-------|
D|---6------------|---8------------|---6------------|---8------------|-------|
A|---6------------|---6------------|---6------------|---6------------|-------|
E|---4------------|----------------|---4------------|----------------|-------|
  (x16)             (x16)             (x16)            (x16)


e|----------------|----------------|-----------------------------------------|
B|----------------|----------------|-----------------------------------------|
G|----------------|---8------------|-----------------------------------------|
D|---6------------|---8------------|-----------------------------------------|
A|---6------------|---6------------|-----------------------------------------|
E|---4------------|----------------|-----------------------------------------|
   (x16)            (x9)
[ Tab from: http://www.guitaretab.com/l/lady-gaga/175730.html ]
Chorus
e|----------------|----------------|----------------|------------------------|
B|----------------|----------------|----------------|------------------------|
G|----------------|---9------------|----------------|------------------------|
D|---6------------|---9------------|---9------------|---8--------------------|
A|---6------------|---7------------|---9------------|---8--------------------|
E|---4------------|----------------|---7------------|---6--------------------|
   (x8)              (x8)             (x8)            (x8)

e|----------------|----------------|----------------|------------------------|
B|----------------|----------------|----------------|------------------------|
G|----------------|---9------------|----------------|------------------------|
D|---6------------|---9------------|---9------------|---8--------------------|
A|---6------------|---7------------|---9------------|---8--------------------|
E|---4------------|----------------|---7------------|---6--------------------|
   (x8)              (x8)             (x8)             (x8)

Intro/Verse (x4)

Pre-Chorus

Chorus

Intro/Verse (x2)

Bridge (x6)
e|-------------------------|-------------------------------------------------|
B|-------------------------|-------------------------------------------------|
G|-------------------------|-------------------------------------------------|
D|-------------------------|-------------------------------------------------|
A|-----6\5-----6-5-6-5-----|-------------------------------------------------|
E|---4-----7-4---------2---|-------------------------------------------------|

Chorus (till the end)




| /  slide up
| \  slide down
| h  hammer-on
| p  pull-off
| ~  vibrato
| +  harmonic
| x  Mute note
===============================================================================
Related for Poker Face tab
Poker Face chords by Lady Gaga