Song name
# A B C D E F G H I J K L M N O P Q R S T U V W X Y Z

Lady Gaga - Love Game tab

Hey, this is my first tab, so enjoy!
(:

Main Riff - You can pretty much do the whole song with just this.
I'm pretty sure it's 100% accurate.
E|----------------------------------|
B|----------------------------------|
G|----------------------------------|
D|---------5-4----2-2-2--4-0--------|
A|--2-2-2---------------------------|
E|----------------------------------|

Bridge - I wasn't really sure on this, so it's only like 80% accurate.
E|-------------------------------------------------------------------------|
B|--13-13-13-13-13-13-13-13-7-7-7-7-7-7-7-7-8-8-8-8-8-8-8-8-14-14-14-14-14-|
G|-------------------------------------------------------------------------|
D|-------------------------------------------------------------------------|
A|-------------------------------------------------------------------------|
E|-------------------------------------------------------------------------|

Bridge cont.
------------------------------------------------------------------|
--7h8p7~--13-13-13-13-13-13-13-13-7-7-7-7-7-7-7-7-8-8-8-8-8-8-8-8-|
------------------------------------------------------------------|
------------------------------------------------------------------|
------------------------------------------------------------------|

Bridge cont.
---------------------|
--7h8p7-7h8p7-7h8p7~-|
---------------------|
---------------------|

Rate please!
Tap to rate this tab
# A B C D E F G H I J K L M N O P Q R S T U V W X Y Z