Guitaretab - guitar tabs
Song name
# A B C D E F G H I J K L M N O P Q R S T U V W X Y Z

Lady Gaga - Paparazzi tab

----------------------------------------------------------------------------
			     Paparazzi - Lady Gaga
----------------------------------------------------------------------------
Tabbed by: guitarjd.

Tuning: Standard

(Another guitar can also play Bm and G chords for the intro with a CAPO 1, and G, D, Em, 
chords for the chorus also with a CAPO 1)

----------------------------------------------------------------------------

Intro:

(Let the first '8' on the E string ring for a second then play the next three '8's the 
speed as the '10's on the A string)

e|--------------------------| X3
B|--------------------------|
G|--------------------------|
D|--------------------------|
A|--10--10--10--------------|
E|--------------8--8--8--8--|

We are the crowd            - 1st play
We're c-comin' out          - 2nd play
Got my flash on, it's true  - 3rd play


e|--------------------------------------------------------|
B|--------------------------------------------------------|
G|--------------------------------------------------------|
D|--------------------------------------------------------|
A|--10--11--15--11--10--6--5--6-----10--6--5-----5--6-----|
E|-------------------------------8------------8--------8--|

Need that picture of you
It so magical, we'd be so fantastical

----------------------------------------------------------------------------


e|--------------------------| X3
B|--------------------------|
G|--------------------------|
D|--------------------------|
A|--10--10--10--------------|
E|--------------8--8--8--8--|

Leather and jeans, garage glamorous  - 1st play
Not sure what it means               - 2nd play
But this photo of us                 - 3rd play


e|--------------------------------------------------------|
B|--------------------------------------------------------|
G|--------------------------------------------------------|
D|--------------------------------------------------------|
A|--10--11--15--11--10--6--5--6-----10--6--5-----5--6-----|
E|-------------------------------8------------8--------8--|

It don't have a price
Ready for those flashing lights

----------------------------------------------------------------------------

(Don't play anything, it's just her singing this line)

'Cause you know that baby,I

----------------------------------------------------------------------------

Chorus:

e|---------------------------------------------------------------------------| X2
B|---------------------------------------------------------------------------|
G|--13--13--13--13--13--15--12--12--12--12--12--13--17--13b--12--13--17--13--|
D|---------------------------------------------------------------------------|
A|---------------------------------------------------------------------------|
E|---------------------------------------------------------------------------|

I'm your biggest fan, I'll follow you until you love me
Papa, paparazzi
Baby, there's no other superstar, you know that i'll be
Your papa, paparazzi

----------------------------------------------------------------------------

e|--17--15--14--12--7b--14/-17--15--14--12--5b--|
B|----------------------------------------------|
G|----------------------------------------------|
D|----------------------------------------------|
A|----------------------------------------------|
E|----------------------------------------------|

Promise I'll be kind
But I wont stop until that boy is mine

----------------------------------------------------------------------------


e|---------------------------------------------------------------------------|
B|---------------------------------------------------------------------------|
G|--13--13--13--13--13--15--12--12--12--12--12--13--17--13b--12--13--17--13--|
D|---------------------------------------------------------------------------|
A|---------------------------------------------------------------------------|
E|---------------------------------------------------------------------------|

Baby, you'lll be famous, chase you down until you love me
Papa, paparazzi

----------------------------------------------------------------------------

(Palm muted)
e|--------------------| X4
B|--------------------|
G|--------------------|
D|--------7--------7--|
A|--0--0--7--0--0--7--|
E|--------------------|

(does not sing)

----------------------------------------------------------------------------

(Also let the first '8' on the E string ring for a second then play the next three '8's 
same speed as the '10's on the A string)

e|--------------------------| X3
B|--------------------------|
G|--------------------------|
D|--------------------------|
A|--10--10--10--------------|
E|--------------8--8--8--8--|

I'll be your girl           - 1st play
Backstage at your show      - 2nd play
Velvet ropes and guitars    - 3rd play


e|--------------------------------------------------------|
B|--------------------------------------------------------|
G|--------------------------------------------------------|
D|--------------------------------------------------------|
A|--10--11--15--11--10--6--5--6-----10--6--5-----5--6-----|
E|-------------------------------8------------8--------8--|

Yeah, cause you're my rock star inbetween the sets
Eyeliner and cigarettes

----------------------------------------------------------------------------

[ Tab from: http://www.guitaretab.com/l/lady-gaga/187139.html ]
e|--------------------------| X3
B|--------------------------|
G|--------------------------|
D|--------------------------|
A|--10--10--10--------------|
E|--------------8--8--8--8--|

Shadow is burnt                      - 1st play
Yellow dance and we turn             - 2nd play
My lashes are dry                    - 3rd play


e|--------------------------------------------------------|
B|--------------------------------------------------------|
G|--------------------------------------------------------|
D|--------------------------------------------------------|
A|--10--11--15--11--10--6--5--6-----10--6--5-----5--6-----|
E|-------------------------------8------------8--------8--|

Purple tear drops I cry
I don't have a price


e|----------------------------------------------|
B|----------------------------------------------|
G|----------------------------------------------|
D|----------------------------------------------|
A|--10--10--10--------------10--10--10-----12b--|
E|--------------8--8--8--8--------------8-------|

Loving you is cherry pie
Cause I know that baby, I

----------------------------------------------------------------------------

Chorus:

e|---------------------------------------------------------------------------| X2
B|---------------------------------------------------------------------------|
G|--13--13--13--13--13--15--12--12--12--12--12--13--17--13b--12--13--17--13--|
D|---------------------------------------------------------------------------|
A|---------------------------------------------------------------------------|
E|---------------------------------------------------------------------------|

I'm your biggest fan, I'll follow you until you love me
Papa, paparazzi
Baby, there's no other superstar, you know that i'll be
Your papa, paparazzi

----------------------------------------------------------------------------

e|--17--15--14--12--7b--14/-17--15--14--12--5b--|
B|----------------------------------------------|
G|----------------------------------------------|
D|----------------------------------------------|
A|----------------------------------------------|
E|----------------------------------------------|

Promise I'll be kind
But I wont stop until that boy is mine

----------------------------------------------------------------------------


e|---------------------------------------------------------------------------|
B|---------------------------------------------------------------------------|
G|--13--13--13--13--13--15--12--12--12--12--12--13--17--13b--12--13--17--13--|
D|---------------------------------------------------------------------------|
A|---------------------------------------------------------------------------|
E|---------------------------------------------------------------------------|

Baby, you'll be famous, chase you down until you love me
Papa, paparazzi

----------------------------------------------------------------------------

e|--------------------------------------| X2
B|--------------------------------------|
G|--11--------------11--11--------------|
D|------10--10--10----------10--10--10--|
A|--10--------------10--10--------------|
E|-------8---8---8-----------8---8---8--|

Real good, we dance in the studio
Snap, snap to that shit on the radio

----------------------------------------------------------------------------

e|----------------------| X2
B|----------------------|
G|----------------------|
D|----------------------|
A|--10-----------10-----|
E|------8--6--8------8--|

Dont Stop for anyone
We're plastic but we still have fun

----------------------------------------------------------------------------

e|---------------------------------------------------------------------------| X2
B|---------------------------------------------------------------------------|
G|--13--13--13--13--13--15--12--12--12--12--12--13--17--13b--12--13--17--13--|
D|---------------------------------------------------------------------------|
A|---------------------------------------------------------------------------|
E|---------------------------------------------------------------------------|

I'm your biggest fan, I'll follow you until you love me
Papa, paparazzi
Baby, there's no other superstar, you know that i'll be
Your papa, paparazzi

----------------------------------------------------------------------------

e|--17--15--14--12--7b--14/-17--15--14--12--5b--|
B|----------------------------------------------|
G|----------------------------------------------|
D|----------------------------------------------|
A|----------------------------------------------|
E|----------------------------------------------|

Promise I'll be kind
But I wont stop until that boy is mine

----------------------------------------------------------------------------


e|---------------------------------------------------------------------------|
B|---------------------------------------------------------------------------|
G|--13--13--13--13--13--15--12--12--12--12--12--13--17--13b--12--13--17--13--|
D|---------------------------------------------------------------------------|
A|---------------------------------------------------------------------------|
E|---------------------------------------------------------------------------|

Baby, you'll be famous, chase you down until you love me
Papa, paparazzi

----------------------------------------------------------------------------

This song sounds best with distortion

Please rate
Thanks
Related for Paparazzi tab
Advertisement will be closed in 10 seconds