Song name
# A B C D E F G H I J K L M N O P Q R S T U V W X Y Z

Lady Gaga - Brown Eyes tab

Just the intro, I'll try and tab the full song soon enough though ^^



e|------------|------------------------|----------|----------|------------|
B|-6----------|-------------------4----|-8--------|----6-----|------------|
G|-7----------|---10--------------5----|-8--------|-3--7-----|---------10-|
D|-8--10-12-10|-7-----10-12-10-7--6--3-|-8----3-5-|----8--10-|-12-10-7----|
A|-8----------|-------------------6----|-6--------|----8-----|------------|
E|------------|------------------------|----4-----|----------|------------|

e|----------------|-------|
B|-------------4--|----8--|
G|-------------5--|----8--|
D|-10-12-10-7--6--|-3--8--|
A|-------------6--|----6--|
E|----------------|-------|
Tap to rate this tab
# A B C D E F G H I J K L M N O P Q R S T U V W X Y Z