Guitaretab - guitar tabs
Song name
# A B C D E F G H I J K L M N O P Q R S T U V W X Y Z

Lady Gaga - Bad Romance tab

------------------------------------------------------------------------------- 
BAD ROMANCE - Lady Gaga 

------------------------------------------------------------------------------- 
Tabbed by: dvon88 
Email: xisephiroth@yahoo.com 

This is a vocal cover so I matched all the hammer ons, pull offs, slides, and 
bends to the tone of her voice and when it changes. To see how it is played, 
watch my video of it on YouTube(I have the same name on YouTube: dvon88) 

Tuning:DGCFAD 

Notes in () at slides are not to be picked, just slide to/from that fret to the 
next fret. 

Intro 

d|---------------------------------------------------------------------------| 
A|---------------------------------------------------------------------------| 
F|---------------------------------------------------------------------------| 
C|-0h2h4p0-/5--4-5-4h5p4-2------2-/4--4-4-4\2p0-0----------------------------|
G|--------------------------4-5----------------------------------------------| 
D|---------------------------------------------------------------------------| x2 

d|---------------------------------------------------------------------------| 
A|---------------------------------------------------------------------------| 
F|---------------------------------------------------------------------------| 
C|-----4-4-5-4-------4-4-5-4------4-4-5-4------------------------------------| 
G|-2-2----------2-2----------2-2-----------5-5p2-5p2-5b----------------------| 
D|---------------------------------------------------------------------------| x2 
pm. Bend only a microtone 

Verse 1 

d|---------------------------------------------------------------------------| 
A|---------------------------------------------------------------------------| 
F|---------------------------------------------------------------------------| 
C|---------------------------------------------------------------------------| 
G|---------------------------------------------------------------------------| 
D|-5-7-5-7-7--5-5/10-7-5-7p5--7-7-5-7-5-7-5-/10-7-5-7p5--2-5/7-7-------------| 

d|---------------------------------------------------------------------------| 
A|---------------------------------------------------------------------------| 
F|---------------------------------------------------------------------------| 
C|---------------------------------------------------------------------------| 
G|-/9-/5---------------------------------------------------------------------| 
D|-------/7-2-5/7-7~---------------------------------------------------------| 

d|---------------------------------------------------------------------------| 
A|---------------------------------------------------------------------------| 
F|---------------------------------------------------------------------------| 
C|---------------------------------------------------------------------------| 
G|---------------------------------------------------------------------------| 
D|-/10-10-7-10-10~--7-10-10-7-10\5~--/10-10-7-10-7-10-7-10\(7)-5-7p5-2-5/7-7-| 

d|---------------------------------------------------------------------------| 
A|---------------------------------------------------------------------------| 
F|---------------------------------------------------------------------------| 
C|---------------------------------------------------------------------------| 
G|-/9-/5---------------------------------------------------------------------| 
D|-------/7-2-5/7-7~~--------------------------------------------------------| 

Prechorus 1 

d|---------------------------------------------------------------------------| 
A|---------------------------------------------------------------------------| 
F|---------------------------------------------------------------------------| 
C|---------------------------------------------------------------------------| 
G|-x-x-x---------------------------------------------------------------------| 
D|-x-x-x---just do muted 8th notes on the low 2 strings----3*------------------| 

Chorus 

d|---------------------------------------------------------------------------| 
A|---------------------------------------------------------------------------| 
F|---------------------------------------------------------------------------| 
C|-/9-9-9-9-9~~\(7)-7-7-7-2~--2-2-2/(4)--4-4-4-4/(7)~~\(2)-2p0---0h4h5p0-/5--| 
G|---------------------------------------------------------------------------| 
D|---------------------------------------------------------------------------| 

d|---------------------------------------------------------------------------| 
A|---------------------------------------------------------------------------| 
F|---------------------------------------------------------------------------| 
C|-/9-9-9-9-9-9~\(7)-7-7-7-2~~-2-2-2/(4)-4-4-4-4/(8)\(2)-2p0-----------------| 
G|---------------------------------------------------------------------------| 
D|---------------------------------------------------------------------------| 

d|---------------------------------------------------------------------------| 
A|---------------------------------------------------------------------------| 
F|---------------------------------------------------------------------------| 
C|-0h2h4p0-/5--4-5-4h5p4-2------2-/4--4-4-4\2p0-0----------------------------|
G|--------------------------4-5----------------------------------------------| 
D|---------------------------------------------------------------------------| x2 

d|---------------------------------------------------------------------------| 
A|---------------------------------------------------------------------------| 
F|---------------------------------------------------------------------------| 
C|-----4-4-5-4-------4-4-5-4------4-4-5-4------------------------------------| 
G|-2-2----------2-2----------2-2-----------5-5p2-5p2-5b----------------------| 
D|---------------------------------------------------------------------------| 

Verse 2 

d|---------------------------------------------------------------------------| 
A|---------------------------------------------------------------------------| 
F|---------------------------------------------------------------------------| 
C|---------------------------------------------------------------------------| 
G|---------------------------------------------------------------------------| 
D|-5-7-5-7-7--5-5/10-7-5-7p5--7-7-5-7-5-7-5-/10-7-5-7p5--2-5/7-7-------------| 

d|---------------------------------------------------------------------------| 
A|---------------------------------------------------------------------------| 
F|---------------------------------------------------------------------------| 
C|---------------------------------------------------------------------------| 
G|-/9-/5---------------------------------------------------------------------| 
D|-------/7-2-4/5-5~---------------------------------------------------------| 

d|---------------------------------------------------------------------------| 
A|---------------------------------------------------------------------------| 
F|---------------------------------------------------------------------------| 
C|---------------------------------------------------------------------------| 
G|---------------------------------------------------------------------------| 
D|-/10-10-7-10-10~--7-10-10-7-10\5~--/10-10-7-10-7-10-7-10\(7)-5-7p5-2-5/7-7-| 
[ Tab from: http://www.guitaretab.com/l/lady-gaga/208662.html ]
d|---------------------------------------------------------------------------| 
A|---------------------------------------------------------------------------| 
F|---------------------------------------------------------------------------| 
C|---------------------------------------------------------------------------| 
G|-/9-/5---------------------------------------------------------------------| 
D|-------/7-2-5/7-7~~--------------------------------------------------------| 

Prechorus 2 

d|---------------------------------------------------------------------------| 
A|---------------------------------------------------------------------------| 
F|---------------------------------------------------------------------------| 
C|---------------------------------------------------------------------------| 
G|---------------------------------------------------------------------------| 
D|-x--x-x-x-x-x-x-x-x-x-x-x-x-x-xxxx-x-x-xxxx-x-x-xxxx-xxxx-xxxx-------------| 

Chorus 

d|---------------------------------------------------------------------------| 
A|---------------------------------------------------------------------------| 
F|---------------------------------------------------------------------------| 
C|-/9-9-9-9-9~~\(7)-7-7-7-2~--2-2-2/(4)--4-4-4-4/(7)~~\(2)-2p0---0h4h5p0-/5--| 
G|---------------------------------------------------------------------------| 
D|---------------------------------------------------------------------------| 

d|---------------------------------------------------------------------------| 
A|---------------------------------------------------------------------------| 
F|---------------------------------------------------------------------------| 
C|-/9-9-9-9-9-9~\(7)-7-7-7-2~~-2-2-2/(4)-4-4-4-4/(8)\(2)-2p0-----------------| 
G|---------------------------------------------------------------------------| 
D|---------------------------------------------------------------------------| 

d|---------------------------------------------------------------------------| 
A|---------------------------------------------------------------------------| 
F|---------------------------------------------------------------------------| 
C|-0h2h4p0-/5--4-5-4h5p4-2------2-/4--4-4-4\2p0-0----------------------------|
G|--------------------------4-5----------------------------------------------| 
D|---------------------------------------------------------------------------| x2 

d|---------------------------------------------------------------------------| 
A|---------------------------------------------------------------------------| 
F|---------------------------------------------------------------------------| 
C|-----4-4-5-4-------4-4-5-4------4-4-5-4------------------------------------| 
G|-2-2----------2-2----------2-2-----------5-5p2-5p2-5b----------------------| 
D|---------------------------------------------------------------------------| x2 

Interlude 

d|---------------------------------------------------------------------------| 
A|---------------------------------------------------------------------------| 
F|---------------------------------------------------------------------------| 
C|---------------------------------------------------------------------------| 
G|-0--0--0-0-0-0-0-0-0-0-0-00-0----------------------------------------------| 
D|---------------------------------------------------------------------------| x2 

d|---------------------------------------------------------------------------| 
A|---------------------------------------------------------------------------| 
F|---------------------------------------------------------------------------| 
C|-7--7--7-7-7-7-7-7-7-7-7-77-7----------------------------------------------| 
G|-0--0--0-0-0-0-0-0-0-0-0-00-0----------------------------------------------| 
D|---------------------------------------------------------------------------| 

d|---------------------------------------------------------------------------| 
A|---------------------------------------------------------------------------| 
F|-9--9--9-9-9-9-9-9-99-9---9---9--------------------------------------------| 
C|-7--7--7-7-7-7-7-7-77-7---7---7--------------------------------------------| 
G|-0--0--0-0-0-0-0-0-00-0---0---0--------------------------------------------| 
D|---------------------------------------------------------------------------| 
"free bitch baby" 
d|---------------------------------------------------------------------------| 
A|---------------------------------------------------------------------------| 
F|---------------------------------------------------------------------------| 
C|---------------------------------------------------------------------------| 
G|-/5-4--0-2---/5-5-4-4-0-----/5-4--0-2---/9-9-9-9-7-5-----------------------| 
D|------------------------2~-------------------------------------------------| x2 
I don't wanna be friends 

d|---------------------------------------------------------------------------| 
A|---------------------------------------------------------------------------| 
F|---------------------------------------------------------------------------| 
C|---------------------------------------------------------------------------| 
G|-/5-4--0-2---/5-5-4-4-0----/5-4--0-2---/9-9-9-9-7-5~~~~/9-9-9-9-12-5~~~~---| 
D|------------------------2~-------------------------------------------------| 
I don't wanna be friends 

d|--------------------------------------------10-10-7-10p7-10----------------| 
A|---------------------------------------------------------------------------| 
F|-/7-7-7-7-6---------------/7-7p4-7p4-7-------------------------------------| 
C|------------9--7h9p7\5-----------------------------------------------------| 
G|---------------------------------------------------------------------------| 
D|---------------------------------------------------------------------------| 
Want your bad romance 
Chorus 3 

d|---------------------------------------------------------------------------| 
A|---------------------------------------------------------------------------| 
F|-----------------------------------------------/7p6------------------------| 
C|-/9-9-9-9-9~~\(7)-7-7-7-2~--2-2-2/(4)--4-4-4-4------9\7--------------------| 
G|---------------------------------------------------------------------------| 
D|---------------------------------------------------------------------------| 

d|---------------------------------------------------------------------------| 
A|---------------------------------------------------------------------------| 
F|---------------------------------------------------------------------------| 
C|-/9-9-9-9-9-9~\(7)-7-7-7-2~~-2-2-2/(4)-4-4-4-4/(8)\(2)-2p0-----------------| 
G|---------------------------------------------------------------------------| 
D|---------------------------------------------------------------------------| 

d|---------------------------------------------------------------------------| 
A|---------------------------------------------------------------------------| 
F|------------------------[7-7p4-7p4-7]----------[7-7p4-7p4-7]---------------| 
C|-0h2h4p0-/5--4-5-4h5p4-2------2-/4--4-4-4\2p0-0----------------------------|
G|--------------------------4-5----------------------------------------------| 
D|---------------------------------------------------------------------------| x2 
[Want your bad romance] [Want your bad romance] 


d|---------------------------------------------------------------------------| 
A|---------------------------------------------------------------------------| 
F|---------------------------------------------------------------------------| 
C|-----4-4-5-4-------4-4-5-4------4-4-5-4------------------------------------| 
G|-2-2----------2-2----------2-2-----------5-5p2-5p2-5b----------------------| 
D|---------------------------------------------------------------------------| x2 
I like to play this last part one octave up. 


| / slide up 
| \ slide down 
| h hammer-on 
| p pull-off 
| ~ vibrato 
| + harmonic 
| x Mute note 
| * Pinch Harmonic 
Related for Bad Romance tab
Bad Romance chords by Lady Gaga