Guitaretab - guitar tabs
Song name
# A B C D E F G H I J K L M N O P Q R S T U V W X Y Z

Lady Gaga - Bad Romance tab

Bad Romance
by: Lady Gaga
The Fame Monster
Tabbed by: slevin3

"Oh..."
--------1-11-0-----------------|--------1-11-0-----------------|
-13-5-1--------3-013-5-555-3-1-|-13-5-1--------3-013-5-555-3-1-|
-------------------------------|-------------------------------|
-------------------------------|-------------------------------|
-------------------------------|-------------------------------|
-------------------------------|-------------------------------|

"Ra ra ah ah ah..."
-------------------------------|-------------------------------|
----5565----5565----5565-------|----5565----5565----5565-------|
-22------22------22------552525|-22------22------22------552525|
-------------------------------|-------------------------------|
-------------------------------|-------------------------------|
-------------------------------|-------------------------------|

"I want your ugly..."
-------------------------------|-------------------------------|
-------------------------------|-------51----------------------|
-25255-252020-220202-252020----|--0-22---2--022----------------|
-------------------------------|-2---------2-------------------|
-------------------------------|-------------------------------|
-------------------------------|-------------------------------|

"I want your drama..."
-------------------------------|-------------------------------|
-------------------------------|-------51----------------------|
-25255-252020-252525-252020----|--0-22---2--022----------------|
-------------------------------|-2---------2-------------------|
-------------------------------|-------------------------------|
-------------------------------|-------------------------------|

"You know that I want you..."
-------------------------------|
-------------------------------|
-222222-2222222-22222-2-22-----|
-------------------------------|
-------------------------------|
-------------------------------|

"I want your love..."
--555555-3333-----------3------|-555555-3333----------3--------|
-------------3-33-5-555--3-3/1-|------------3-33-5-55---3-3/1--|
-------------------------------|-------------------------------|
-------------------------------|-------------------------------|
-------------------------------|-------------------------------|
-------------------------------|-------------------------------|

"Oh..."
--------1-11-0-----------------|--------1-11-0-----------------|
-13-5-1--------3-013-5-555-3-1-|-13-5-1--------3-013-5-555-3-1-|
-------------------------------|-------------------------------|
-------------------------------|-------------------------------|
-------------------------------|-------------------------------|
-------------------------------|-------------------------------|

"Ra ra ah ah ah..."
-------------------------------|
----5565----5565----5565-------|
-22------22------22------552525|
-------------------------------|
-------------------------------|
-------------------------------|

"I want your horror..."
-------------------------------|-------------------------------|
-------------------------------|-------51----------------------|
-25255-252020-220202-252020----|--0-22---2--022----------------|
-------------------------------|-2---------2-------------------|
-------------------------------|-------------------------------|
-------------------------------|-------------------------------|

"I want your psycho..."
-------------------------------|-------------------------------|
-------------------------------|-------51----------------------|
-25255-252020-252525-252020----|--0-22---2--022----------------|
-------------------------------|-2---------2-------------------|
-------------------------------|-------------------------------|
-------------------------------|-------------------------------|
[ Tab from: http://www.guitaretab.com/l/lady-gaga/209499.html ]
"You know that I want you..."
-------------------------------|
-------------------------------|
-222222-2222222-22222-2-22-----|
-------------------------------|
-------------------------------|
-------------------------------|

"I want your love..."
--555555-3333-----------3------|-555555-3333----------3/4------|
-------------3-33-5-555--3-3/1-|------------3-33-5-55----3-3/1-|
-------------------------------|-------------------------------|
-------------------------------|-------------------------------|
-------------------------------|-------------------------------|
-------------------------------|-------------------------------|

"Oh..."
--------1-11-0-----------------|--------1-11-0-----------------|
-13-5-1--------3-013-5-555-3-1-|-13-5-1--------3-013-5-555-3-1-|
-------------------------------|-------------------------------|
-------------------------------|-------------------------------|
-------------------------------|-------------------------------|
-------------------------------|-------------------------------|

"Ra ra ah ah ah..."
-------------------------------|
----5565----5565----5565-------|
-22------22------22------552525|
-------------------------------|
-------------------------------|
-------------------------------|

"Walk, walk fashion baby..."
-------------------------------|-------------------------------|
-------------------------------|-------------------------------|
-------------------------------|-------------------------------|
-55-5555-55555-555-------------|-55-5555-55555-555-------------|
-------------------------------|-------------------------------|
-------------------------------|-------------------------------|

"Walk, walk fashion baby..."
-------------------------------|-------------------------------|
-------------------------------|-------------------------------|
-------------------------------|-------------------------------|
-55-5555-55555-555-------------|-55-5555-55-5555-55------------|
-------------------------------|-------------------------------|
-------------------------------|-------------------------------|

"I want your love..."
-------------------------------|-------------------------------|
-10---1100---10----555531------|-0/10---1100---10----555531----|
---02-----0----02--------------|---02-----0----02--------------|
-----------2-------------------|-----------2-------------------|
-------------------------------|-------------------------------|
-------------------------------|-------------------------------|

"I don't wanna be friends..."
-----3----888875-3/1--885858---|---------885858----------------|
-5555-1------------------------|-555531------------------------|
-------------------------------|-------------------------------|
-------------------------------|-------------------------------|
-------------------------------|-------------------------------|
-------------------------------|-------------------------------|

"I want your love..."
--555555-3333-----------8-753--|-555555-3333----------4--------|
-------------3-33-5-555--------|------------3-33-5-55---35-----|
-------------------------------|-------------------------------|
-------------------------------|-------------------------------|
-------------------------------|-------------------------------|
-------------------------------|-------------------------------|

"Oh..."
--------1-11-0-----------------|--------1-11-0-----------------|
-13-5-1--------3-013-5-555-3-1-|-13-5-1--------3-013-5-555-3-1-|
-------------------------------|-------------------------------|
-------------------------------|-------------------------------|
-------------------------------|-------------------------------|
-------------------------------|-------------------------------|

"Ra ra ah ah ah..."
-------------------------------|
----5565----5565----5565-------|
-22------22------22------552525|
-------------------------------|
-------------------------------|
-------------------------------|
Related for Bad Romance tab
Bad Romance chords by Lady Gaga