Song name
# A B C D E F G H I J K L M N O P Q R S T U V W X Y Z

Lady Gaga - Telephone tab

This is the acoustic guitar intro to Telephone by Lady Gaga and Beyonce. Make sure to 
all the notes ring.
I've been playing guitar for 4 years and I admit, this is still pretty hard for me, but 
you have a lot of
experience with finger picking guitar this should be a cinch for you. Leave any 
concerns, mistakes
I made and constructive criticism in the comment box. Enjoy! :-)

The tempo is 122 and all the notes are pretty much eighth notes besides the last chord 
the first run,
which is a whole note.

e|--8-----6-----------------|--------------------13--11--|
B|--------------9--------6--|--------4-------------------|
G|--------------------------|----------------------------|
D|--------------------6-----|--------------1-------------|
A|-----6-----8-----6--------|-----1-----------3----------|
E|--8-----------------------|--4--------4----------------|

e|--10----6-----------3----|--4--|
B|--------------6----------|-----|
G|-------------------------|-----|
D|-----------8-------------|-----|
A|-----6-----------6-------|--3--|
E|--6-------------------1--|--1--|

(Singing begins)

Hello, hello, baby; You called, I cant hear a thing
Wha-Wha-What did you say? Oh, youre breaking up on me

e|--8-----6-----------------|--------------------13--11--|
B|--------------9--------6--|--------4-------------------|
G|--------------------------|----------------------------|
D|--------------------6-----|--------------1-------------|
A|-----6-----8-----6--------|-----1-----------3----------|
E|--8-----------------------|--4--------4----------------|

I have got no service in the club, you see, see
Sorry, I cannot hear you, Im kinda busy

e|--10----6-----------3----|--4-----------------------|
B|--------------6----------|--------1-----1-----1--4--|
G|-------------------------|--------------------------|
D|-----------8-------------|--------------------------| x2
A|-----6-----------6-------|--------------------------|
E|--6-------------------1--|-----1-----1-----1--------|

Then it goes all techno.

-Familyjules7x
Tap to rate this tab
 
# A B C D E F G H I J K L M N O P Q R S T U V W X Y Z