Song name
# A B C D E F G H I J K L M N O P Q R S T U V W X Y Z

Lady Gaga - Just Dance tab

Song: Just Dance
Artist: Lady Gaga
Album: The Fame
Tuning: Standard, no capo

Intro:
E|--------------------------------------|
B|----------9-9-9-9-------10-10-10-10-9-|
G|--9-9-9-9---------8-8-8---------------|
D|--------------------------------------|
A|--------------------------------------|
E|--------------------------------------|
^ You can play this four times,
Or after playing it two times, you can play this:

E|-----------------------------------|
B|----------------------------------9|
G|-----------------------------------|
D|-----------------------------------|
A|--4-4-7-7---9-9-7-4-4-7-7---9-9-7--|
E|----------7---------------7--------|

Verse:

“I’ve had a little bit too much,”
E|-----------------|
B|-----------------|
G|-----------------|
D|-----------------|
A|--4-4-7-7---9-9-7|
E|----------7------|

“All of the people start to rush (start to rush by),”
E|-----------------|
B|-----------------|
G|-----------------|
D|-----------------|
A|--4-4-7-7---9-9-7|
E|----------7------|

“A dizzy twister dance, can’t find a drink or man,”
E|-----------------|
B|-----------------|
G|-----------------|
D|-----------------|
A|--4-4-7-7---9-9-7|
E|----------7------|

“Where are my keys? I lost my phone,”
E|-----------------|
B|-----------------|
G|-----------------|
D|-----------------|
A|--4-4-7-7---9-9-7|
E|----------7------|



“What’s going on on the floor?”
E|-----------------|
B|-----------------|
G|-----------------|
D|-----------------|
A|-----------------|
E|--4-4-5-4-5-5-5-4|

“I love this record, baby, but I can’t see straight anymore,”
E|-----------------|
B|-----------------|
G|-----------------|
D|-----------------|
A|--4-2-4-2-4-4-4-4|
E|-----------------|

“Keep it cool. What’s the name of this club?”
E|-----------------|
B|-----------------|
G|-----------------|
D|-----------------|
A|-----------------|
E|--4-4-5-4-5-5-5-4|

“I can’t remember, but it’s alright, alright.”
E|---------------|
B|---------------|
G|---------------|
D|---------------|
A|--4-2-4-2-4-7-6|
E|---------------|

Chorus:

E|--------------------------------------|
B|----------9-9-9-9-------10-10-10-10-9-|
G|--9-9-9-9---------8-8-8---------------|
D|--------------------------------------|
A|--------------------------------------|
E|--------------------------------------|
Play this four times throughout the whole chorus.

OR

E|-------------------------------------|
B|-------------------------------------|
G|--6-6-6-6-9-9-9-9-------11-11-11-11-9|
D|--6-6-6-6-9-9-9-9-9-9-9-11-11-11-11-9|
A|--4-4-4-4-7-7-7-7-9-9-9-9--9--9--9--7|
E|------------------7-7-7--------------|
(Four times.)

After either one of these, play this (once):

E|---|
B|-9-|
G|---|
D|---|
A|---|
E|---|


Verse:

“Wish I could shut my Playboy mouth,”
E|-----------------|
B|-----------------|
G|-----------------|
D|-----------------|
A|--4-4-7-7---9-9-7|
E|----------7------|

“How’d I turn my shirt inside out?”
E|-----------------|
B|-----------------|
G|-----------------|
D|-----------------|
A|--4-4-7-7---9-9-7|
E|----------7------|

“Control your poison babe. Roses have thorns, they say,”
E|-----------------|
B|-----------------|
G|-----------------|
D|-----------------|
A|--4-4-7-7---9-9-7|
E|----------7------|

“And we’re all getting hosed tonight,”
E|-----------------|
B|-----------------|
G|-----------------|
D|-----------------|
A|--4-4-7-7---9-9-7|
E|----------7------|

“What’s going on on the floor?”
E|-----------------|
B|-----------------|
G|-----------------|
D|-----------------|
A|-----------------|
E|--4-4-5-4-5-5-5-4|

“I love this record, baby, but I can’t see straight anymore,”
E|-----------------|
B|-----------------|
G|-----------------|
D|-----------------|
A|--4-2-4-2-4-4-4-4|
E|-----------------|

“Keep it cool. What’s the name of this club?”
E|-----------------|
B|-----------------|
G|-----------------|
D|-----------------|
A|-----------------|
E|--4-4-5-4-5-5-5-4|




“I can’t remember, but it’s alright, alright.”
E|---------------|
B|---------------|
G|---------------|
D|---------------|
A|--4-2-4-2-4-7-6|
E|---------------|

Chorus:

E|--------------------------------------|
B|----------9-9-9-9-------10-10-10-10-9-|
G|--9-9-9-9---------8-8-8---------------|
D|--------------------------------------|
A|--------------------------------------|
E|--------------------------------------|
Play this four times throughout the whole chorus.

OR

E|-------------------------------------|
B|-------------------------------------|
G|--6-6-6-6-9-9-9-9-------11-11-11-11-9|
D|--6-6-6-6-9-9-9-9-9-9-9-11-11-11-11-9|
A|--4-4-4-4-7-7-7-7-9-9-9-9--9--9--9--7|
E|------------------7-7-7--------------|
(Four times.)

After either one of these, play this (once):

E|---|
B|-9-|
G|---|
D|---|
A|---|
E|---|

“When I come through on the dance floor…”
“…until tomorrow yeah.”

E|-----------------|
B|-----------------|
G|-----------------|
D|-----------------|
A|--4-4-7-7---9-9-7|
E|----------7------| < Play this four times.

“Shawty I can see that you do much energy,”
E|-----------------|
B|-----------------|
G|-----------------|
D|-----------------|
A|-----------------|
E|--4-4-5-4-5-5-5-4|

“The way you twirlin’ up them hips round and round,”
E|-----------------|
B|-----------------|
G|-----------------|
D|-----------------|
A|--4-2-4-2-4-4-4-4|
E|-----------------|
“And there’s no reason at all why you can’t leave here with me,”
E|-----------------|
B|-----------------|
G|-----------------|
D|-----------------|
A|-----------------|
E|--4-4-5-4-5-5-5-4|


“In the mean time, stay, let me watch you break it down,”
E|---------------|
B|---------------|
G|---------------|
D|---------------|
A|--4-2-4-2-4-7-6|
E|---------------|

Chorus:

E|--------------------------------------|
B|----------9-9-9-9-------10-10-10-10-9-|
G|--9-9-9-9---------8-8-8---------------|
D|--------------------------------------|
A|--------------------------------------|
E|--------------------------------------|
Play this four times throughout the whole chorus.

OR

E|-------------------------------------|
B|-------------------------------------|
G|--6-6-6-6-9-9-9-9-------11-11-11-11-9|
D|--6-6-6-6-9-9-9-9-9-9-9-11-11-11-11-9|
A|--4-4-4-4-7-7-7-7-9-9-9-9--9--9--9--7|
E|------------------7-7-7--------------|
(Four times.)

Bridge:


E|--9---9-9-7---------------|
B|----9-------10-9-9-9-9-8-7|
G|--------------------------|
D|--------------------------|
A|--------------------------|
E|--------------------------| Play this twice, then:

E|---|
B|-9-|
G|---|
D|---|
A|---|
E|---|









“Half psychotic, sick, hypnotic…
…in your pocko (I got it)”
E|-------------------------------------|
B|-------------------------------------|
G|--6-6-6-6-9-9-9-9-------11-11-11-11-9|
D|--6-6-6-6-9-9-9-9-9-9-9-11-11-11-11-9|
A|--4-4-4-4-7-7-7-7-9-9-9-9--9--9--9--7|
E|------------------7-7-7--------------|
You can palm mute the chords from the chorus here. It’s repeated twice.

Chorus:
E|--------------------------------------|
B|----------9-9-9-9-------10-10-10-10-9-|
G|--9-9-9-9---------8-8-8---------------|
D|--------------------------------------|
A|--------------------------------------|
E|--------------------------------------|
This time, you play it six times until the song ends.

OR

E|-------------------------------------|
B|-------------------------------------|
G|--6-6-6-6-9-9-9-9-------11-11-11-11-9|
D|--6-6-6-6-9-9-9-9-9-9-9-11-11-11-11-9|
A|--4-4-4-4-7-7-7-7-9-9-9-9--9--9--9--7|
E|------------------7-7-7--------------|
(Six times.)

That’s it! :)
Tap to rate this tab
 
# A B C D E F G H I J K L M N O P Q R S T U V W X Y Z