Guitaretab - guitar tabs
Song name
# A B C D E F G H I J K L M N O P Q R S T U V W X Y Z

Lady Gaga - Bad Romance tab

MY FIRST TAB EVER! PLEASE BE NICE!

NOTE:
THIS IS MY RE-INTERPRETATION OF THE SONG. IT ISN'T AN EXACT MATCH TO LADY GAGAS VOCALS OR MUSIC.
I JUST THOUGHT IT SOUNDS COOL WITH A COUPLE OF DISTORTED GUITARS!
ALL THE CHORDS IN THE INTRO, VERSE, PRE-CHORUS, CHORUS AND INTERLUDE SHOULD BE CONSTANTLY PLAYED
UNTIL THE CHORD CHANGE, I JUST COULDN'T BE ARSED COUNTING HOW MANY TIMES I PLAYED THEM.
(I'VE ADDED SOME OF THE VOCALS TO GIVE AN IDEA OF WHEN TO CHANGE)

ANY COMMENTS/ SUGGESTIONS ARE WELCOME

MUCH THANKS TO JUDE LOCKETT WHO SHOWED ME THE PRE-VERSE, I USED THAT TO FIND EVERYTHING ELSE


	BAD ROMANCE - LADY GAGA

	TABBED BY: MICHAEL STUBBINGS
	
	EMAIL: MDSSEVENFOLD@HOTMAIL.COM
	
	TUNING: STANDARD
------------------------------
INTRO
GTR. 1 LIGHT DISTORTION
e|--------------------------------------------------------|
B|--------------------------------------------------------|
G|--------------------------------------------------------|
D|--------------------------------------------------7-5---|
A|12x8--10x8--5x8--7x4--3-5-7-10--12x8--10x8--5x14--------|
E|--------------------------------------------------------|
GTR. 2 CLEAN
e|3-----3-----0----0--------------3-----3-----0-----------|
B|3-----3-----0----1----------1---3-----3-----0-----------|
G|0-----0-----0----0--------0-----0-----0-----0-----------|
D|2-----2-----2----2------2-------2-----2-----2-----------|
A|3-----2-----2----3----3---------3-----2-----2-----------|
E|------------0-------------------------------0-----------|

------------------------------
PRE-VERSE. PART 1
GTR. 1 LIGHT DISTORTION
e|---------------------------------------|
B|---------------------------------------|
G|---------------------------------------|
D|---------------------------------------|
A|---77/8\7----77/8\7----77/8\7-33---33--|
E|55--------55--------55-----------5-----|

----------
PRE-VERSE. PART 2
GTR. 1 HEAVY DISTORTION
e|------------------------------------------|
B|------------------------------------------|
G|---99109-----99109-----99109--55-2-55-----|
D|77-99109--77-99109--77-99109--55-2-55-----|
A|77-778-7--77-778-7--77-778-7--33-0-33-----|
E|55--------55--------55--------------------|
GTR. 2 HEAVY DISTORTION
e|------------------------------------------|
B|------------------------------------------|
G|---99109-----99109-----99109--55-2-5------|
D|77-99109--77-99109--77-99109--55-2-5------|
A|77-778-7--77-778-7--77-778-7--33-0-3------|
E|55--------55--------55---------------3/5--|

------------------------------
VERSE. PART 1
NOTE: KEEP STRIKING NOTE/CHORD IN RHYTHM TO LYRICS
GTR. 1 LIGHT DISTORTION
e|-----------------------------------------------------------------------|
B|-----------------------------------------------------------------------|
G|----------------------------------------------------------------7-5\---|
D|-------------------------------------------------------------7-5-------|
A|----------------------------------------------------------7-5----------|
E|---5-------------------------0------------------5------8-5-------------|
P.M. .	                        .                  .      . .. .. .. .

GTR. 2 HEAVY DISTORTION
e|-----------------------------------------------------------------------|
B|-----------------------------------------------------------------------|
G|-----------------------------------------------------------------------|
D|-----------------------------------------------------------------------|
A|-----------------------------------------------------------------------|
E|------------------------------------------------------------------10\3-|
P.M.

    "I want your.. ..want your love" "..want your love"
----------
VERSE. PART 2
GTR. 1 HEAVY DISTORTION
e|-----------------------------------------------------------------------|
B|-----------------------------------------------------------------------|
G|-----------------------------------------------------------------------|
D|-----------------------------------------------------------------------|
A|---7-------------------------2------------------7----------------------|
E|---5-------------------------0------------------5-----------------10\3-|
P.M. .	                        .                  .
GTR. 2 HEAVY DISTORTION
e|-----------------------------------------------------------------------|
B|-----------------------------------------------------------------------|
G|-----------------------------------------------------------------------|
D|-----------------------------------------------------------------------|
A|---7-------------------------2------------------7----------------------|
E|---5-------------------------0------------------5-----------------10\3-|
P.M. .                         .                  .
[ Tab from: http://www.guitaretab.com/l/lady-gaga/213477.html ]
    "I want your.. ..want your love" "..want your love"
------------------------------
PRE-CHORUS
NOTE: KEEP STRIKING P.M. CHORDS IN RHYTHM TO LYRICS
GTR. 1 LIGHT DISTORTION
e|--------------------------------------------------|
B|--------------------------------------------------|
G|--------------------------------------------------|
D|--------------------------------------------------|
A|---5-------------------------------7-9------------|
E|---3-------------------------------5-7------------|
P.M. .
GTR. 2 LIGHT DISTORTION
e|--------------------------------------------------|
B|--------------------------------------------------|
G|--------------------------------------------------|
D|--------------------------------------------------|
A|---5----------------------------------------------|
E|---3-------------------------------3/7------------|
P.M. .

    "You know that..  ..bad romance"
------------------------------
CHORUS
GTR. 1 HEAVY DISTORTION
e|----------------------------------------------------------------------------|
B|----------------------------------------------------------------------------|
G|--------9---7--------9---7----------------------9---7--------9--------------|
D|---10---9---7---10---9---7---------7--5----10---9---7---10---9--------15\---|
A|---10---7---5---10---7---5---7--5----------10---7---5---10---7--------15\---|
E|---8------------8--------------------------8------------8-------------15\---|
GTR. 2 HEAVY DISTORTION
e|---8----12--10--8----12--10--------15-13---8----12--10--8----10-------------|
B|---8----12--10--8----12--10--15-13---------8----12--10--8----10-------------|
G|----------------------------------------------------------------------------|
D|----------------------------------------------------------------------15\---|
A|----------------------------------------------------------------------15\---|
E|----------------------------------------------------------------------15\---|

------------------------------
PRE-VERSE. PART 2

------------------------------
VERSE. PART 1

------------------------------
VERSE. PART 2

------------------------------
PRE-CHORUS

------------------------------
CHORUS

------------------------------
PRE-VERSE. PART 2 X2

------------------------------
BRIDGE
GTR. 1 HEAVY DISTORTION
e|----------------------------------------------------------------------------------|
B|----------------------------------------------------------------------------------|
G|----------------------------------------------------------------------------------|
D|------------------------------------5/7-------------------------------------------|
A|-----------------5/7-----------------------------------5/7----------------7/12b~ -|
E|---0-0-0-00-00-00-----0-0-0-00-00-00-----0-0-0-00-00-00-----0-0-0-00-00-00--------|
P.M. . . . .. .. ..     . . . .. .. ..     . . . .. .. ..     . . . .. .. ..
GTR. 2 HEAVY DISTORTION
e|----------------------------------------------------------------------------------|
B|----------------------------------------------------------------------------------|
G|----------------------------------------------------------------------------------|
D|----------------------------------------------------------------------------------|
A|----------------------------------------------------------------------------------|
E|---0-0-0-00-00-0000---0-0-0-00-00-0000---0-0-0-00-00-0000---0-0-0-00-00-00--------|
P.M. . . . .. .. ....   . . . .. .. ....   . . . .. .. ....   . . . .. .. ..

    "Walk, walk.."
------------------------------
INTERLUDE. PART 1
GTR. 1 HEAVY DISTORTION
e|---------------------------------------------------------------------------|
B|---------------------------------------------------------------------------|
G|---------------------------------------------------------------------------|
D|---------------------------------------------------------------------------|
A|12b~ ---------------------------12b~ --------------------------------------|
E|---------------------------------------------------------------------------|
GTR. 2 CLEAN
e|3-----3-----0----0--------------3-----3-----0----0--------------|
B|3-----3-----0----1----------1---3-----3-----0----1----------1---|
G|0-----0-----0----0--------0-----0-----0-----0----0--------0-----|
D|2-----2-----2----2------2-------2-----2-----2----2------2-------|
A|3-----2-----2----3----3---------3-----2-----2----3----3---------|
E|------------0-------------------------------0-------------------|

 "I want.."                    "..J'veux.."
----------
INTERLUDE. PART 2
GTR. 1 LIGHT DISTORTION
e|----------------------------------------------------------------------------|
B|----------------------------------------------------------------------------|
G|----------------------------------------------------------------------------|
D|----------------------------------------------------------------------------|
A|12x8--10x8--5x8--7x4--3-5-7-10--12x8--10x8--5x9--7----------------------3/7-|
E|----------------------------------------------------------------------------|
GTR. 2 CLEAN
e|3-----3-----0----0--------------3-----3-----0----0--------------------------|
B|3-----3-----0----1----------1---3-----3-----0----1--------------------------|
G|0-----0-----0----0--------0-----0-----0-----0----0--------------------------|
D|2-----2-----2----2------2-------2-----2-----2----2--------------------------|
A|3-----2-----2----3----3---------3-----2-----2----3--------------------------|
E|------------0-------------------------------0-------------------------------|

 "Oh-oh-oh..                                         "Want your bad romance!"

------------------------------
CHORUS

------------------------------
PRE-VERSE. PART 2

------------------------------
END ON

e|------|
B|------|
G|--2---|
D|--2---|
A|--0---|
E|------|

e|------|
B|------|
G|--2---|
D|--2---|
A|--0---|
E|------|

------------------------------

************************************

 x8      play indicated note 8 times
 P.M. .  palm mute
 /       slide up
 \       slide down
 h       hammer-on
 p       pull-off
 ~       vibrato
 +       harmonic
 x       Mute note
 b       Bend

************************************
Related for Bad Romance tab
Bad Romance chords by Lady Gaga